Sound will begin in 5 seconds

She's a Bread Baker by C.W. Stoneking - Arr: Andrew Morse for Ukulele standard GCEA

Chords
01234567891011121314151617181920212223
E
B
G
D
A
E
B
0 1 2 3 4 5 6 7 8 9 10 11 12 13 14 15 16 17 18 19 20 21 22 23
Song Science #1: How Pros Use 6 Chords to Write Hit Songs
(/) Slide Up  (\) Slide Down  (h) Hammer On  (p) Pull Off  (b) Bend (r) Release (v) Vibrato

Stave 1:

A|---------------------------------1-1-1-|---------------------------1-1-1-|---
E|---------------------------------3-3-3-|---------------------------3-3-3-|---
C|-3b---3b3b--3b3b--3b3b--3b0----------0-|-3b3b3b3b3b3b3b3b0-------------0-|---
G|-------------------------------0-----0-|----------------------0--------0-|---

Stave 2:

A|-0-0-0-0-0-0-0-0-0-0-0-0-0-0-0-0-|-1-1-1-3-1-------------3-3----3-|-
E|-1-1-1-1-1-1-1-1-1-1-1-1-1-1-1-1-|-3-3-3-3-3-3-2-1-------3-3----3-|-
C|-0-0-2-2-3-3-2-2-0-0-2-2-3-3-2-2-|-0-0-0-0-0-------3b0---0-0----0-|-
G|-2-2-2-2-2-2-2-2-2-2-2-2-2-2-2-2-|-0-0-0-0-0-----------0-0-0----0-|-

Stave 3:

A|-2----2-2-2-2-2-2-----------6-6----6-|-1----1-1-1-3-1----------------3-3----3-|-
E|-1----1-1-1-1-1-1-----------5-5----5-|-3----3-3-3-3-3-3-2-1----------3-3----3-|-
C|-2----2-2-2-2-2-2----2-3----5-5----5-|-0----0-0-0-0-0-------3b0------0-0----0-|-
G|---------------------1-2----5-5----5-|-0----0-0-0-0-0--------------0-0-0----0-|-

Stave 4:

A|-------1-1----1----------1-1----3-3-|-------1-1----1-------3-3-|-
E|---0---3-3----3------0---3-3----3-3-|---0---3-3----3---0---3-3-|-
C|-3---0-0-0----0----3-----0-0----0-0-|-3-----0-0----0-3-----0-0-|-
G|-------0-0----0--------0-0-0----0-0-|-----0-0-0----0-----0-0-0-|-

Stave 5:

A|-x-x----6-6----x-x----6-6----1----|-1-1-1-3-1----------------3----
E|-x-x----5-5----x-x----5-5----3----|-3-3-3-3-3-3-2-1----------3----
C|-2-3----5-5----2-3----5-5----0----|-0-0-0-0-0-------3b0------0----
G|-1-2----5-5----1-2----5-5----0----|-0-0-0-0-0-----------0----0----

Stave 6:

A|-2-2-2-2-2-2-2----x-x----6-6----6-|-1----1-1-1-3-1-------------1-1-|-
E|-1-1-1-1-1-1-1----x-x----5-5----5-|-3----3-3-3-3-3-3-2-1-------3-3-|-
C|-2-2-2-2-2-2-2----2-3----5-5----5-|-0----0-0-0-0-0-------3b0---0-0-|-
G|-0-0-0-0-0-0-0----1-2----5-5----5-|-0----0-0-0-0-0-----------0-0-0-|-

Stave 7:

A|-10-10-10-10-10-10-10-10-10-10-10-|-3-3-3-3----3-3-3-3-|-
E|-11-11-11-11-11-11-11-11-11-11-11-|-3-3-5-5----3-3-5-5-|-
C|----------------------------------|-0-0-0-0----0-0-0-0-|-
G|----------------------------------|-0-0-0-0----0-0-0-0-|-

Stave 8:

A|-10-10-10-10-10-10-10-10-10-10-10-|-3----6-5-3------------6-6----6-|-
E|-11-11-11-11-11-11-11-11-11-11-11-|-3----------6b3--------5-5----5-|-
C|----------------------------------|-0--------------2-3----5-5----5-|-
G|----------------------------------|-0--------------1-2----5-5----5-|-

Stave 9:

A|--------6-6----------6-|-1----1-1-1-3-1----------------1-1-|-
E|--------5-5----------5-|-3----3-3-3-3-3-3-2-1----------3-3-|-
C|-2-3----5-5----------5-|-0--------------------3b0----------|-
G|-1-2----5-5----------5-|-0------------------------0--------|-

Stave 10:

A|-2----2-2-2-2-2-2-----------6-6----6-|-1----1-1-1-3-1----------------3-3----3-|-
E|-1----1-1-1-1-1-1-----------5-5----5-|-3----3-3-3-3-3-3-2-1----------3-3----3-|-
C|-2----2-2-2-2-2-2----2-3----5-5----5-|-0--------------------3b0------0-0----0-|-
G|---------------------1-2----5-5----5-|-0------------------------0----0-0----0-|-

http://www.guitartabcreator.com
Guitar Tab Creator is intended to store guitar tab created through the tool. It currently does not support in-line text editing. Any text you place in here will be lost. If you need to comment on your tab, please use the "Tab Notes" section located below.