Sound will begin in 5 seconds

Bramble Blast (notes only)

01234567891011121314151617181920212223
E
B
G
D
A
E
B
0 1 2 3 4 5 6 7 8 9 10 11 12 13 14 15 16 17 18 19 20 21 22 23
Song Science #1: How Pros Use 6 Chords to Write Hit Songs
(/) Slide Up  (\) Slide Down  (h) Hammer On  (p) Pull Off  (b) Bend (r) Release (v) Vibrato

Stave 1:

E|----------------------------------------------------------------------------------------------
B|--14--15--14--15------------------------------------------------------------------------------
G|------------------13--------------------------------------------------------------------------
D|----------------------------------------------------------------------------------------------
A|----------------------------------------------------------------------------------------------
E|----------------------------------------------------------------------------------------------

Stave 2:

E|------------------------------------------------------------------------------------------15--
B|--19--17--15------15----------------------19--17--15------15------15------17--15--17--19------
G|--------------18------------------16------------------18------16------18----------------------
D|----------------------16--14--19------16------------------------------------------------------
A|----------------------------------------------------------------------------------------------
E|----------------------------------------------------------------------------------------------

Stave 3:

E|--17v--19--17v--19--17v--15----------------------15--17v--19--17v--19--17v--15---------------
B|-----------------------------19--17--15--17--19---------------------------------19--17--15v--
G|---------------------------------------------------------------------------------------------
D|---------------------------------------------------------------------------------------------
A|---------------------------------------------------------------------------------------------
E|---------------------------------------------------------------------------------------------

Stave 4:

E|----------17--17----------17--17------17--19------------------17--17----------17--17----------
B|--14--14----------14--14----------------------19--19--14--14----------14--14------------------
G|----------------------------------------------------------------------------------------------
D|----------------------------------------------------------------------------------------------
A|----------------------------------------------------------------------------------------------
E|----------------------------------------------------------------------------------------------

Stave 5:

E|----------------------------------------------------------------------------------------------
B|----------------------------------------------------------------------------------------------
G|----------------------------------------------16--16------------------------------------------
D|--16--16--14--19--19--17--16--14--12--11--12----------16--14--14--16--18--16------------------
A|----------------------------------------------------------------------------------------------
E|----------------------------------------------------------------------------------------------

Stave 6:

E|--------------------------------------------------17v--------------------------------15--------
B|--------------------------------------19--21--19---------------------------------19------19----
G|--14--16--18--18--19--18--16------16-------------------------19--18--16--18--19----------------
D|------------------------------16---------------------------------------------------------------
A|-----------------------------------------------------------------------------------------------
E|-----------------------------------------------------------------------------------------------

Stave 7:

E|-----------------------------------------------------------------------------------------------
B|------19v--------------------------------------------------------------------------------------
G|--19-------------------------------------------------------------------------------------------
D|-----------------------------------------------------------------------------------------------
A|-----------------------------------------------------------------------------------------------
E|-----------------------------------------------------------------------------------------------

http://www.guitartabcreator.com
Guitar Tab Creator is intended to store guitar tab created through the tool. It currently does not support in-line text editing. Any text you place in here will be lost. If you need to comment on your tab, please use the "Tab Notes" section located below.