Sound will begin in 5 seconds

Daydream

01234567891011121314151617181920212223
E
B
G
D
A
E
B
0 1 2 3 4 5 6 7 8 9 10 11 12 13 14 15 16 17 18 19 20 21 22 23
Song Science #1: How Pros Use 6 Chords to Write Hit Songs
(/) Slide Up  (\) Slide Down  (h) Hammer On  (p) Pull Off  (b) Bend (r) Release (v) Vibrato

Stave 1:

E|-------------------------8--------------6--6--------------4--6--8--------8------------8-----
B|--------9---9------------6--9-----------6--6-----------6--6--------------9------------6--9--
G|--------8---8------------7--------------5--5-----------5--5--------------8------------7-----
D|--------10--10-----------6--------------6--6--------6-----6--------------10-----------6-----
A|--8--8----------8--6--6--------6--5--5--------5--4--------4--------8--8------8--6--6--------
E|--------------------------------------------------------------------------------------------

Stave 2:

E|-------------------------------------------------------------------
B|-------------1--------1-----------1--------1--------1--------1-----
G|----------------0--------0-----------3--------3--------3--------3--
D|----------2-----------------2-----------2--------2--------2--------
A|----6--3-----------3-----------3-----------------------------------
E|-------------------------------------------------------------------

Stave 3:

E|--------8---8------------8--------------6--8--6-----------------------3--------------8---8------------
B|--------9---9------------6--9-----------6--------6--------0--------------6-----------9---9------------
G|--------8---8------------7--------------5-----------------4--------5--------5--------8---8------------
D|--------10--10-----------6--------------6--------------3-----------------------------10--10-----------
A|--8--8----------8--6--6--------6--5--5-----------5--4--------5--6--------------8--8----------8--6--6--
E|------------------------------------------------------------------------------------------------------

Stave 4:

E|--8-----8--------------------------------------------------------
B|--6--9-----9--------1--1--------1-----1-----1-----1-----1-----1--
G|--7-----------------0--0--------0-----3-----3-----3-----3-----3--
D|--6--------------2-----------2--------2-----2-----2-----2-----2--
A|-------------3-----------3--------3-----3-----3-----3-----3-----
E|----------------------------------------------------------------

http://www.guitartabcreator.com
Guitar Tab Creator is intended to store guitar tab created through the tool. It currently does not support in-line text editing. Any text you place in here will be lost. If you need to comment on your tab, please use the "Tab Notes" section located below.