Sound will begin in 5 seconds

Necessary Evil

01234567891011121314151617181920212223
E
B
G
D
A
E
B
0 1 2 3 4 5 6 7 8 9 10 11 12 13 14 15 16 17 18 19 20 21 22 23
Song Science #1: How Pros Use 6 Chords to Write Hit Songs
(/) Slide Up  (\) Slide Down  (h) Hammer On  (p) Pull Off  (b) Bend (r) Release (v) Vibrato

Stave 1:

E|-------------------------------------------------------------------------
B|-------------------------------------------------------------------------
G|-------------------------------------------------------------------------
D|---------10----------------------10----------------------10--------------
A|---10h12----12-10-12-10----10h12----12-10-12-10----10h12----12-10-12-10--
E|-0----------------12-10--0----------------12-10--0----------------12-10--

Stave 2:

E|-------------------------
B|-------------------------
G|-------------------------
D|-------------------------
A|-10-10-10-10-3--3--5--0--
E|-10-10-10-10-3--3--5--0--

Stave 3:

E|------------------------
B|------------------------
G|------------------------
D|------------------------
A|-10-10-10-10-2--3--5--0-
E|-10-10-10-10-2--3--5--0-

Stave 4:

E|-------------------------
B|-------------------------
G|-------------------------
D|-------------------------
A|-12-12-12-10--12--10--12-
E|-12-12-12-10--12--10--12-

Stave 5:

E|-------------------
B|-------------------
G|-------------------
D|-------------------
A|-5--5--5--3--3--0--
E|-5--5--5--3--3--0--

Stave 6:

E|------------------------------
B|------------------------------
G|------------------------------
D|-------7-5--------------------
A|-0-0-0-5-3--0--0-2-3-5-3-2-0--
E|-0-0-0------0--0-2-3-5-3-2-0--

http://www.guitartabcreator.com
Guitar Tab Creator is intended to store guitar tab created through the tool. It currently does not support in-line text editing. Any text you place in here will be lost. If you need to comment on your tab, please use the "Tab Notes" section located below.