Sound will begin in 5 seconds

Sweep FAmFGC

01234567891011121314151617181920212223
E
B
G
D
A
E
B
0 1 2 3 4 5 6 7 8 9 10 11 12 13 14 15 16 17 18 19 20 21 22 23
Song Science #1: How Pros Use 6 Chords to Write Hit Songs
(/) Slide Up  (\) Slide Down  (h) Hammer On  (p) Pull Off  (b) Bend (r) Release (v) Vibrato

Stave 1:

E|--------------------8h12p8-------------------------------------12h17p12------------------
B|----------------10----------10-----------------------------13------------13--------------
G|------------10------------------10---------------------14--------------------14----------
D|--------10--------------------------10-------------14----------------------------14------
A|--8h12----------------------------------12--12h15------------------------------------15--
E|-----------------------------------------------------------------------------------------

Stave 2:

E|-----------------17h20p17---------------------------------10h15p10------------------
B|-------------18------------18-------------------------12------------12--------------
G|---------17--------------------17-----------------12--------------------12----------
D|--15h19----------------------------19---------12----------------------------12------
A|---------------------------------------10h14------------------------------------14--
E|------------------------------------------------------------------------------------

Stave 3:

E|---------------------15h20p15------------------
B|-----------------17------------17--------------
G|-------------17--------------------17----------
D|---------17----------------------------17------
A|--15h19------------------------------------19--
E|-----------------------------------------------

http://www.guitartabcreator.com
Guitar Tab Creator is intended to store guitar tab created through the tool. It currently does not support in-line text editing. Any text you place in here will be lost. If you need to comment on your tab, please use the "Tab Notes" section located below.