Sound will begin in 5 seconds

BmEADmF

01234567891011121314151617181920212223
E
B
G
D
A
E
B
0 1 2 3 4 5 6 7 8 9 10 11 12 13 14 15 16 17 18 19 20 21 22 23
Song Science #1: How Pros Use 6 Chords to Write Hit Songs
(/) Slide Up  (\) Slide Down  (h) Hammer On  (p) Pull Off  (b) Bend (r) Release (v) Vibrato

Stave 1:

E|---------------------14h19p14-------------------------------------16h19p16------------------
B|-----------------15------------15-----------------------------17------------17--------------
G|-------------16--------------------16---------------------16--------------------16----------
D|---------16----------------------------16-------------17----------------------------17------
A|--14h17------------------------------------17--14h19------------------------------------19--
E|--------------------------------------------------------------------------------------------

Stave 2:

E|---------------------12h17p12-------------------------------------14h17p14------------------
B|-----------------14------------14-----------------------------15------------15--------------
G|-------------14--------------------14---------------------14--------------------14----------
D|---------14----------------------------14-------------16----------------------------16------
A|--12h16------------------------------------16--12h17------------------------------------17--
E|--------------------------------------------------------------------------------------------

Stave 3:

E|----------------------8h13p8------------------
B|------------------10----------10--------------
G|--------------10------------------10----------
D|----------10--------------------------10------
A|----8h12----------------------------------12--
E|----------------------------------------------

http://www.guitartabcreator.com
Guitar Tab Creator is intended to store guitar tab created through the tool. It currently does not support in-line text editing. Any text you place in here will be lost. If you need to comment on your tab, please use the "Tab Notes" section located below.