Sound will begin in 5 seconds

Arranging Expansion Verse Solo

Chords
01234567891011121314151617181920212223
E
B
G
D
A
E
B
0 1 2 3 4 5 6 7 8 9 10 11 12 13 14 15 16 17 18 19 20 21 22 23
Song Science #1: How Pros Use 6 Chords to Write Hit Songs
(/) Slide Up  (\) Slide Down  (h) Hammer On  (p) Pull Off  (b) Bend (r) Release (v) Vibrato

Stave 1:

E|------------------------------------------------------------------------------------------------------
B|--------------------------------------------------------------------------------9--11b13--11--9-------
G|--------------------------------------------------------------------------8h10-------------------10v--
D|-----6-----------6-----------6-----------------6-----------6-----6--8/10------------------------------
A|--8-----8--6--8-----8--6--8-----8--6--8--6--8-----8--6--8-----8---------------------------------------
E|------------------------------------------------------------------------------------------------------

Stave 2:

E|------------------------------------------------------------------------------------------------------------
B|--------------------------------9---------------9------9--11b13--11--9--11b13--11--9--11b13--11--9--11--9v--
G|--10\0--10\0--10\0--10--10--10-----10p8h10--10-----10-------------------------------------------------------
D|------------------------------------------------------------------------------------------------------------
A|------------------------------------------------------------------------------------------------------------
E|------------------------------------------------------------------------------------------------------------

Stave 3:

E|---------11---------11---------11---------11---------11---------11--------------------
B|--11b13------11b13------11b13------11b13------11b13------11b13------11b13--13r11------
G|----------------------------------------------------------------------------------10--
D|--------------------------------------------------------------------------------------
A|--------------------------------------------------------------------------------------
E|--------------------------------------------------------------------------------------

Stave 4:

E|------
B|--10--
G|------
D|------
A|------
E|------

Stave 5:

E|--11-----11-----11-----11------------------------------
B|--11b13--11b13--11b13--13r11--9------------------------
G|--_-----------------------------10--10--10--8--10--8--
D|--_---------------------------------------------------
A|--_---------------------------------------------------
E|--_---------------------------------------------------

http://www.guitartabcreator.com
Guitar Tab Creator is intended to store guitar tab created through the tool. It currently does not support in-line text editing. Any text you place in here will be lost. If you need to comment on your tab, please use the "Tab Notes" section located below.