Sound will begin in 5 seconds

Honolulu

01234567891011121314151617181920212223
E
B
G
D
A
E
B
0 1 2 3 4 5 6 7 8 9 10 11 12 13 14 15 16 17 18 19 20 21 22 23
Song Science #1: How Pros Use 6 Chords to Write Hit Songs
(/) Slide Up  (\) Slide Down  (h) Hammer On  (p) Pull Off  (b) Bend (r) Release (v) Vibrato

Stave 1:

E|----------------------------------------------------------------------------------------
B|----------------------------------------------------------------------------------------
G|-----6--------8--6-----8--------11--9--8---------6--------4--4-----6--------4--------4--
D|--------6-----6--6--------8---------------11--------4-----4--4--------4--------4--------
A|--7--------7--7--7--9--------9----------------6--------6--6--6--6--------6--------6-----
E|----------------------------------------------------------------------------------------

Stave 2:

E|---------------------------
B|---------------------------
G|--6--8--6--4--8--11--6--4--
D|--6--8--4--4--6--8---4--4--
A|--7--9--6--6--7--9---6--6--
E|---------------------------

Stave 3:

E|--7--9--6--4--
B|--5--7--4--4--
G|--4--6--4--4--
D|--6--8--4--4--
A|--4--6--------
E|--------------

Stave 4:

E|------------------------------------------------------------------
B|--14--16--12--14------------------14--16--12--14------------------
G|------------------13--13--13--13------------------11--11--11--11--
D|--11--13--9---11------------------11--13--9---11------------------
A|------------------11--11--11--11------------------9---9---9---9---
E|------------------------------------------------------------------

http://www.guitartabcreator.com
Guitar Tab Creator is intended to store guitar tab created through the tool. It currently does not support in-line text editing. Any text you place in here will be lost. If you need to comment on your tab, please use the "Tab Notes" section located below.