Sound will begin in 5 seconds

Neutral Spirits

01234567891011121314151617181920212223
E
B
G
D
A
E
B
0 1 2 3 4 5 6 7 8 9 10 11 12 13 14 15 16 17 18 19 20 21 22 23
Song Science #1: How Pros Use 6 Chords to Write Hit Songs
(/) Slide Up  (\) Slide Down  (h) Hammer On  (p) Pull Off  (b) Bend (r) Release (v) Vibrato

Stave 1:

E|---------------------------------------------------------------------
B|---------------------------------------------------------------------
G|---------------------------------------------------------------------
D|------------------------------7--6----6----6h7--7--6--6--6-----------
A|------------------------------------------------------------5--4--0--
E|--------4----4--4--4----4--4-----------------------------------------

Stave 2:

E|------------------------------------------------
B|------------------------------------------------
G|------------------------------------------------
D|---------------------------------4--6--7--6v----
A|------------------------4--6--7-----------------
E|--4--4----4--4----------------------------------

Stave 3:

E|--------------------------------------
B|--------------------------------------
G|------------------------------------5\
D|------------------------------------6-
A|------------------------4--4--7--7----
E|--4--4----4--4------------------------

Stave 4:

E|---------------------------------------------------------------
B|---------------------------------------------------------------
G|---------------------------------------------------------------
D|---------------------------------------------------------------
A|---------------------------------------------------------------
E|--5----5--5--5----5--5--5--5--5------5----5--5--5--5--5--7--5--

Stave 5:

E|------------------------------------------------
B|------------------------------------------------
G|------------------------------------------------
D|--------------------------------------4--5--6v--
A|-----7--6--2--5--0--3--0-----7--6--2------------
E|--4-----------------------4---------------------

Stave 6:

E|--------------------------------------------------------------------------------------------------
B|--------------------------------------------------------------------------------------------------
G|--------------------------------------------------------------------------------------------------
D|--------------------------------------------------------------------------------------------------
A|--7--4--7--4--7--4--7--4--6--4--6--4--6--4--6--4--6--3--6--3--6--3--6--3--7--4--7--4--7--4--7--4--
E|--------------------------------------------------------------------------------------------------

Stave 7:

E|--------------------------------------------------------------------
B|--------------------------------------------------------------------
G|--------------------------------------------------------------------
D|--------------------------------------------------------------------
A|--7--6--4--6--7--6--4--7--6--4--3--4--7--6--4--6--7v----9v----------
E|--------------------------------------------------------------4v----

Stave 8:

E|--
B|--
G|--
D|--
A|--
E|--

Stave 9:

E|--
B|--
G|--
D|--
A|--
E|--

Stave 10:

E|--
B|--
G|--
D|--
A|--
E|--

Stave 11:

E|--
B|--
G|--
D|--
A|--
E|--

Stave 12:

E|--
B|--
G|--
D|--
A|--
E|--

Stave 13:

E|--
B|--
G|--
D|--
A|--
E|--

http://www.guitartabcreator.com
Guitar Tab Creator is intended to store guitar tab created through the tool. It currently does not support in-line text editing. Any text you place in here will be lost. If you need to comment on your tab, please use the "Tab Notes" section located below.