Sound will begin in 5 seconds

The Lion

01234567891011121314151617181920212223
E
B
G
D
A
E
B
0 1 2 3 4 5 6 7 8 9 10 11 12 13 14 15 16 17 18 19 20 21 22 23
Song Science #1: How Pros Use 6 Chords to Write Hit Songs
(/) Slide Up  (\) Slide Down  (h) Hammer On  (p) Pull Off  (b) Bend (r) Release (v) Vibrato

Stave 1:

E|-----------------------------
B|-----------------------------
G|-----------------------------
D|--------1--------------1-----
A|--2--3-----3--2--2--3-----3--
E|-----------------------------

Stave 2:

E|--------------------------
B|--------------------------
G|--------------------------
D|--------------1--1--------
A|--2--2--3--3--------3--3--
E|--------------------------

Stave 3:

E|--------------
B|--------------
G|-----------4--
D|--6--3--4-----
A|--------------
E|--------------

Stave 4:

E|-----------------------
B|-----------------------
G|-----------------------
D|--------2--0--2--3-----
A|--------------------4--
E|--5--4-----------------

Stave 5:

E|--------------------
B|--------------------
G|--------------------
D|-----------7-----7--
A|--------------------
E|--5--5--5-----5-----

Stave 6:

E|--------------------------------------------------------------------
B|--------------------------------------------------------------------
G|--------6--------5--------------------------------------------------
D|-----7--------5-----------------------------------------------------
A|--4--------3--------8--8--8--8--------------------------------------
E|--------------------------------5--5--5--5--7--7--7--7--7--7--7--7--

Stave 7:

E|---------------------------
B|---------------------------
G|--------9------------------
D|--------10-----------------
A|---------------------------
E|--8--8------8--------------

Stave 8:

E|-----------------------------------------------------------------------------------------
B|-----------------------------------------------------------------------------------------
G|-----------9------------11p9------9---------8-----------9-8-----8--------5----------5----
D|-----------10-----------10-10-----10--------9-----------9p9-----9--------7----------7----
A|-----------------------------------------------------------------------------------------
E|--8--8--8------8--8--8---------8------7--7-----7--7--7-------7-----5--5-------5--5-------

http://www.guitartabcreator.com
Guitar Tab Creator is intended to store guitar tab created through the tool. It currently does not support in-line text editing. Any text you place in here will be lost. If you need to comment on your tab, please use the "Tab Notes" section located below.