Sound will begin in 5 seconds

Various Licks

01234567891011121314151617181920212223
E
B
G
D
A
E
B
0 1 2 3 4 5 6 7 8 9 10 11 12 13 14 15 16 17 18 19 20 21 22 23
Song Science #1: How Pros Use 6 Chords to Write Hit Songs
(/) Slide Up  (\) Slide Down  (h) Hammer On  (p) Pull Off  (b) Bend (r) Release (v) Vibrato

Stave 1:

E|-------------------------------------|--|--
B|--15--14--15--14--12-----------------|--|--
G|----------------------14------12\11--|--|--
D|--------------------------14---------|--|--
A|-------------------------------------|--|--
E|-------------------------------------|--|--

Stave 2:

E|-------------------------------------------------------------------------|--|--
B|-------------15v--17-----------------------------------------------------|--|--
G|--12--14/16-----------16b17r16p14---------14/16--16\14------------14/16--|--|--
D|-----------------------------------17p14----------------17p14\12---------|--|--
A|-------------------------------------------------------------------------|--|--
E|-------------------------------------------------------------------------|--|--

Stave 3:

E|----------------r14--15--17-----------17------17/19r17p15\14--15--17------|--|--
B|----------15--17-------------15v--15------15--------------------------15--|--|--
G|------16------------------------------------------------------------------|--|--
D|--17----------------------------------------------------------------------|--|--
A|--------------------------------------------------------------------------|--|--
E|--------------------------------------------------------------------------|--|--

http://www.guitartabcreator.com
Guitar Tab Creator is intended to store guitar tab created through the tool. It currently does not support in-line text editing. Any text you place in here will be lost. If you need to comment on your tab, please use the "Tab Notes" section located below.