Sound will begin in 5 seconds

Scale Sequence 1

01234567891011121314151617181920212223
E
B
G
D
A
E
B
0 1 2 3 4 5 6 7 8 9 10 11 12 13 14 15 16 17 18 19 20 21 22 23
Song Science #1: How Pros Use 6 Chords to Write Hit Songs
(/) Slide Up  (\) Slide Down  (h) Hammer On  (p) Pull Off  (b) Bend (r) Release (v) Vibrato

Stave 1:

E|----------------------------------------------------------------------------------------
B|----------------------------------------------------------------------------------------
G|---------------------------------------------------------9--10--12--9--10--12-----------
D|-----------------------------------9--10--12--9--10--12---------------------------------
A|-------------8--10--12--8--10--12-------------------------------------------------------
E|--8--10--12-----------------------------------------------------------------------------

Stave 2:

E|--------------------------10--12--13--15--13--12--------------------------------------
B|--10--12--13--10--12--13--------------------------15--13--12--15--13--12--------------
G|--------------------------------------------------------------------------14--12--10--
D|--------------------------------------------------------------------------------------
A|--------------------------------------------------------------------------------------
E|--------------------------------------------------------------------------------------

Stave 3:

E|--------------------------------------------------------------------------
B|--------------------------------------------------------------------------
G|--14--12--10--------------------------------------------------------------
D|--------------14--12--10--14--12--10--------------------------------------
A|--------------------------------------14--12--10--14--12--10--------------
E|--------------------------------------------------------------13--12--10--

http://www.guitartabcreator.com
Guitar Tab Creator is intended to store guitar tab created through the tool. It currently does not support in-line text editing. Any text you place in here will be lost. If you need to comment on your tab, please use the "Tab Notes" section located below.