Sound will begin in 5 seconds

B Blues Run Full 01

01234567891011121314151617181920212223
E
B
G
D
A
E
B
0 1 2 3 4 5 6 7 8 9 10 11 12 13 14 15 16 17 18 19 20 21 22 23
Song Science #1: How Pros Use 6 Chords to Write Hit Songs
(/) Slide Up  (\) Slide Down  (h) Hammer On  (p) Pull Off  (b) Bend (r) Release (v) Vibrato

Stave 1:

E|------------------------------------------------------------------------------------------------
B|----------------------------------------------------------------------------------------10--12--
G|--4--7--9-----------------------------------------------------------------7--9--10--11----------
D|-----------7--9--------------------------------------------2--3--4--7--9------------------------
A|-----------------7--8--9---------------------12--14--2--5---------------------------------------
E|--------------------------7--10--12--13--14-----------------------------------------------------

Stave 2:

E|-----------------------------------------------------------------------------------------------
B|--------------------10--12--15-----------------------------------------------------------------
G|---------9--10--11--------------16--14------------------------------------------------------4--
D|--9--12---------------------------------16--15--14------------------------------------4--7-----
A|----------------------------------------------------17--14--12--9--8--7---------5--7-----------
E|-------------------------------------------------------------------------10--7-----------------

http://www.guitartabcreator.com
Guitar Tab Creator is intended to store guitar tab created through the tool. It currently does not support in-line text editing. Any text you place in here will be lost. If you need to comment on your tab, please use the "Tab Notes" section located below.