Sound will begin in 5 seconds

New Song 5

01234567891011121314151617181920212223
E
B
G
D
A
E
B
0 1 2 3 4 5 6 7 8 9 10 11 12 13 14 15 16 17 18 19 20 21 22 23
Song Science #1: How Pros Use 6 Chords to Write Hit Songs
(/) Slide Up  (\) Slide Down  (h) Hammer On  (p) Pull Off  (b) Bend (r) Release (v) Vibrato

Stave 1:

E|----------------------------------------------------------------------------------------
B|----------------------------------------------------------------------------------------
G|----------------------------------------------------------------------------------------
D|----------------------------------------------------------------------------------------
A|----------------------------------------------------------------------------------------
E|--7--6--10----1--3--0----1----7--6--10----1--3--0----1----7--6--10--7--6--10--7--6--10--

Stave 2:

E|-------------------------------------------------------------------
B|-------------------------------------------------------------------
G|-------------------------------------------------------------------
D|-------------------------------------------------------------------
A|--------------------3----------------------------3--------3--------
E|--7----6----1----0-----4--1----7----6----1----0-----4--1-----4--1--

Stave 3:

E|------------------------------------------
B|------------------------------------------
G|------------------------------------------
D|------------------------------------------
A|------------------------------------------
E|--7----6----1--0----7----6----1--0--0--0--

Stave 4:

E|------------------------------------------------------------------
B|------------------------------------------------------------------
G|------------------------------------------------------------------
D|------------------------------------------------------------------
A|------------------------------------------------------------------
E|--8----7----1--0----8----6----1--0--0--0--0--0--0--0--------------

Stave 5:

E|----------------------------------------------------------------------------------------------
B|----------------------------------------------------------------------------------------------
G|----------------------------------------------------------------------------------------------
D|----------------------------------------------------------------------------------------------
A|--------------------7--5----------------------2--2--2--2--2--2--------------------7--5--4--5--
E|--0--0--0--0--0--0----------3--3--3--1--1--1--------------------0--0--0--0--0--0--------------

Stave 6:

E|--------------------------------------
B|--------------------------------------
G|--------------------------------------
D|--------------------------------------
A|--------------------------------------
E|--6--6--6--6--6--6--1--1--1--1--1--1--

Stave 7:

E|-----------------------------------
B|-----------------------------------
G|-----------------------------------
D|-----------------------------------
A|-----------------------6--5--3-----
E|--0----0----6--6----8-----------1--

http://www.guitartabcreator.com
Guitar Tab Creator is intended to store guitar tab created through the tool. It currently does not support in-line text editing. Any text you place in here will be lost. If you need to comment on your tab, please use the "Tab Notes" section located below.