Sound will begin in 5 seconds

New Song 3

01234567891011121314151617181920212223
E
B
G
D
A
E
B
0 1 2 3 4 5 6 7 8 9 10 11 12 13 14 15 16 17 18 19 20 21 22 23
Song Science #1: How Pros Use 6 Chords to Write Hit Songs
(/) Slide Up  (\) Slide Down  (h) Hammer On  (p) Pull Off  (b) Bend (r) Release (v) Vibrato

Stave 1:

E|-------------------------------------------------------------------------
B|-------------------------------------------------------------------------
G|-------------------------------------------------------------------------
D|-------------------------------------------------------------------------
A|-------------------------------------------------------------------------
E|--9------------9--10--9--7--5--4----10--------------10--11--10--8--6--5--

Stave 2:

E|-----------------------------------------------
B|-----------------------------------------------
G|-----------------------------------------------
D|-----------------------------------------------
A|-----------------------------------------------
E|--2------5--1------2------5--0--1--3--4--3--0--

Stave 3:

E|---------------------------------------------------------------------------------------------------
B|---------------------------------------------------------------------------------------------------
G|---------------------------------------------------------------------------------------------------
D|---------------------------------------------------------------------------------------------------
A|--------------------------------------------------7----1-------------------------------------------
E|--2--1--1--1--1--5--4--2--4--2--4--2--1--1--1--1------------2--1--1--1--1--5--4--2--4--2--4--2--1--

Stave 4:

E|----------------
B|----------------
G|----------------
D|----------------
A|----------------
E|--1--1--1----7--

Stave 5:

E|--------------------------------------------------
B|--------------------------------------------------
G|--------------------------------------------------
D|--------------------------------------------------
A|-----------------------------3----2----6----------
E|--2--------2--------1-----------------------0--4--

Stave 6:

E|------------------------------------------
B|------------------------------------------
G|------------------------------------------
D|------------------------------------------
A|------------------------------------------
E|--7----8----1--0--4----7----8----1--0--4--

http://www.guitartabcreator.com
Guitar Tab Creator is intended to store guitar tab created through the tool. It currently does not support in-line text editing. Any text you place in here will be lost. If you need to comment on your tab, please use the "Tab Notes" section located below.