Sound will begin in 5 seconds

Dream Theater - Wither (solo)

01234567891011121314151617181920212223
E
B
G
D
A
E
B
0 1 2 3 4 5 6 7 8 9 10 11 12 13 14 15 16 17 18 19 20 21 22 23
Song Science #1: How Pros Use 6 Chords to Write Hit Songs
(/) Slide Up  (\) Slide Down  (h) Hammer On  (p) Pull Off  (b) Bend (r) Release (v) Vibrato

Stave 1:

E|--_-------------------------/7--9--10-------------------------------------5----
B|--_--------------------------------------7v--10b-----------------5--7--8-------
G|--_-------/7v--9b--7h9p7-----------------------------------6--7----------------
D|--_-----------------------------------------------5--7--9----------------------
A|--12----------------------------------------------------------------------------
E|--10\---------------------------------------------------------------------------

Stave 2:

E|-----------------------5--7/9--10----10p9h10----10h12p10h12p10------10h12p10h12p10------
B|--------------5--7--8-------------------------------------------12------------------12--
G|-----4--6--7----------------------------------------------------------------------------
D|--7-------------------------------------------------------------------------------------
A|----------------------------------------------------------------------------------------
E|----------------------------------------------------------------------------------------

Stave 3:

E|----10h14p10h14p10------10h14p10h14p10------10h15p10h15p10------15b
B|--------------------12------------------12------------------12-----
G|-------------------------------------------------------------------
D|-------------------------------------------------------------------
A|-------------------------------------------------------------------
E|-------------------------------------------------------------------

http://www.guitartabcreator.com
Guitar Tab Creator is intended to store guitar tab created through the tool. It currently does not support in-line text editing. Any text you place in here will be lost. If you need to comment on your tab, please use the "Tab Notes" section located below.