one october song

Chords

01234567891011121314151617181920212223
E
B
G
D
A
E
B
0 1 2 3 4 5 6 7 8 9 10 11 12 13 14 15 16 17 18 19 20 21 22 23
(/) Slide Up  (\) Slide Down  (h) Hammer On  (p) Pull Off  (b) Bend (r) Release (v) Vibrato
      verse
    C  G  Am F
E|--0--3--0--1--
B|--1--0--1--2--
G|--0--0--2--3--
D|--2--0--2--3--
A|--3--2--0--1--
E|-----3-----1--

      Chorus
    F  C  G
E|--1--0--3--
B|--2--1--0--
G|--3--0--0--
D|--3--2--0--
A|--1--3--2--
E|--1-----3--
							http://www.guitartabcreator.com(/) Slide Up  

Member for

8 years 10 months
Submitted by kirby46 on Fri, 2011-08-19 20:59