Sound will begin in 5 seconds

memory Ib

01234567891011121314151617181920212223
E
B
G
D
A
E
B
0 1 2 3 4 5 6 7 8 9 10 11 12 13 14 15 16 17 18 19 20 21 22 23
Song Science #1: How Pros Use 6 Chords to Write Hit Songs
(/) Slide Up  (\) Slide Down  (h) Hammer On  (p) Pull Off  (b) Bend (r) Release (v) Vibrato

Stave 1:

E|--------------------|--0-----------0-----|--0--------------0--|-----------------|--
B|-----------0--1--3--|-----------0-----0--|-----------0--1-----|--3-----------3--|--
G|--------2-----------|--------------------|--------2-----------|-----------2-----|--
D|-----2--------------|--------6-----------|-----2--------------|--------4--------|--
A|--0-----------------|-----7--------------|--------------------|-----5-----------|--
E|--------------------|--4-----------------|--3-----------------|--2--------------|--

Stave 2:

E|--------------------|-----------3--------|-----------------|--------------------|--
B|-----------0--1--3--|--1-----------1-----|--1-----0--------|--------------------|--
G|--------2-----------|--------------------|--------------2--|--2-----1-----------|--
D|-----0--------------|--------0-----------|-----1-----0-----|-----------3--2--0--|--
A|--------------------|-----3-----------3--|--2--------------|-----2--------------|--
E|--1-----------------|--0-----------------|--------------2--|--0-----------------|--

Stave 3:

E|--------------------|--------------------|--1--------0--1-----|--------------------|--
B|--0-----------------|--------------------|--------1--------1--|--0-----------0-----|--
G|--------2-----0-----|--2-----------------|--------------------|--------2-----0--0--|--
D|-----1-----0-----1--|-----2--3--0--2-----|--0--3--------------|-----3-----3--------|--
A|--------------------|--0--------------3--|--------------------|--------------------|--
E|--1-----------0-----|--------------------|--------------------|--3-----------------|--

Stave 4:

E|--0-----------0-----|-----------------|-----------0--------|--------------------|--
B|--------0--3--------|--0-----------1--|--3-----------3-----|--------------0-----|--
G|-----------------0--|--------2--------|--------2--------2--|--1-----2-----------|--
D|-----2--------------|-----------------|-----4--------------|-----0-----2-----2--|--
A|--3-----------------|-----3-----3-----|--2-----------------|--------------------|--
E|--------------------|--0--------------|--------------------|--0-----1-----2-----|--

Stave 5:

E|--------------------|--0--------------0--|--1--------0--1-----|-----------------|--
B|--1--------0--1--3--|--------0--2--3-----|--------1--------1--|--0-----------0--|--
G|--------2-----------|-----2--------------|-----2--------------|--------2--------|--
D|-----2--------------|--------------------|--0-----------------|-----3-----3-----|--
A|--0-----------------|--4-----------------|--------------------|-----------------|--
E|--------------------|--------------------|--------------------|--3-----------1--|--

Stave 6:

E|--3-----------3-----|--1-----------0-----|--1--------0--1-----|--2-----5-----8--|--
B|-----------3-----3--|--2--------2-----1--|--------1--------1--|-----1-----1-----|--
G|--------0-----------|-----0--3-----------|-----2--------------|-----------------|--
D|--------------------|--------------------|--0-----------------|--1--------------|--
A|-----1--------------|--0-----------------|--------------------|-----------------|--
E|--0-----------------|--------------------|--------------------|-----------------|--

Stave 7:

E|--7-----------7-----|-----12---------------------|--
B|--7--------7-----7--|-------------13-----13--12--|--
G|--7-----7-----------|-----11--12---------12------|--
D|--7--7--------------|-----9----------------------|--
A|--7-----------------|-----------------7----------|--
E|--------------------|--0-------------------------|--

Stave 8:

E|--
B|--
G|--
D|--
A|--
E|--

http://www.guitartabcreator.com
Guitar Tab Creator is intended to store guitar tab created through the tool. It currently does not support in-line text editing. Any text you place in here will be lost. If you need to comment on your tab, please use the "Tab Notes" section located below.