Sound will begin in 5 seconds

Broken Peace Second Guitar

01234567891011121314151617181920212223
E
B
G
D
A
E
B
0 1 2 3 4 5 6 7 8 9 10 11 12 13 14 15 16 17 18 19 20 21 22 23
Song Science #1: How Pros Use 6 Chords to Write Hit Songs
(/) Slide Up  (\) Slide Down  (h) Hammer On  (p) Pull Off  (b) Bend (r) Release (v) Vibrato

Stave 1:

E|------------------------------------------------------------------
B|------------------------------------------------------------------
G|------------------------------------------------------------------
D|--------------------------10--------------------------3-------2---
A|----------------------7-8----8-7--------------------5---5---3---3-
E|-0--0-0-0--0--0-0-0-8------------10\0-0-0-0-0-0-0-7-------5-------

Stave 2:

E|------------------------------------------------------------------
B|------------------------------------------------------------------
G|------------------------------------------------------------------
D|--------------------------10----------------------3-3-3-3-5-5-5-5-
A|----------------------7-8----8-7------------------7-7-7-7-7-7-7-7-
E|-0--0-0-0--0--0-0-0-8------------10\0-0-0-0-0-0-0-----------------

Stave 3:

E|-----------------------------------------------------------
B|-----------------------------------------------------------
G|-----------------------------------------------------------
D|-----------------------------------------------------------
A|-----------------------------------------------------------
E|-0-0-0--0-0-0--0-0-0-0--0-0-0--0-0-0-0-0-0--0--0--0-0--0-0-

Stave 4:

E|-------------------------
B|-------------------------
G|-------------------------
D|-------------------------
A|-------------------------
E|-0-0-0-0--0-0--0-0-0-0-0-

Stave 5:

E|-----------------
B|-----------------
G|-----------------
D|-----------------
A|-0-5-8-5-0-4-7-4-
E|-----------------

Stave 6:

E|-----------------------------------------
B|-----------------------------------------
G|-----------------------------------------
D|-------------------------------------8---
A|-----5-8-5-----4-7-4-----3-6-3-----5---5-
E|-0-0-------0-0-------0-0-------0-0-------

Stave 7:

E|-------------------------------13p11p10----------17p15p13----------
B|----------------------------------------13p11p10----------17p15p13-
G|-------------------------------------------------------------------
D|-------------------------------------------------------------------
A|-----5-8-5-----4-7-4-----3-6-3-------------------------------------
E|-0-0-------0-0-------0-0-------------------------------------------

Stave 8:

E|-------------------------------------------------------------------------
B|-------------------------------------------------------------------------
G|-------------------------------------------------------------------------
D|-------------------------------------8---------------------------------0-
A|-----5-8-5-----4-7-4-----3-6-3-----5---5-----5-8-5-----4-7-4-----3-6-3-0-
E|-0-0-------0-0-------0-0-------0-0-------0-0-------0-0-------0-0-------0-

Stave 9:

E|--------------------------------------------
B|--------------------------------------------
G|--------------7-------------------------7---
D|--------------------------------------------
A|--------------5-------------------------5---
E|-0-0-0--0-0-0---0--0-0-0--0-0-0-0--0-0----0-

Stave 10:

E|-------------------------------------------
B|-------------------------------------------
G|--------------7----------------------------
D|-------------------------------------------
A|--------------5----------------------------
E|-0-0-0--0-0-0---0--0-0-0--0-0-0-0--0-0-0-0-

Stave 11:

E|-----------------------
B|-----------------------
G|-----------------------
D|-10-12-0-3-10-12-0-3-0-
A|-8--10-0-3-8--10-0-3-0-
E|-8--10-0-3-8--10-0-3-0-

Stave 12:

E|------------------------------------------------------------------------------------------
B|------------------------------------------------------------------------------------------
G|------------------------------------------------------------------------------------------
D|------------------------------------------------------------------------------------------
A|------------------------------------------------------------------------------------------
E|-0-0-0--0-0-0-0-0-0--0-0--0-0-0-0-0-0-0-0-0-0--0-0--0-0-0-0-0-0--0-0--0-0-0-0-0-0-0-0-0-0-

Stave 13:

E|-------------------------------------------------------------------------------------------------
B|---------------------------------------------------15b17-15b17-----------------------------------
G|-------------------------------------------------------------------------------------------------
D|-------------------------------------------------------------------------------------------------
A|-------------------------------------------------------------------------------------------------
E|-0-0-0--0-0-0-0-0-0--0-0--0-0-0-0-0-0-0-0-0-0--0-0-------------0-0-0-0-0-0--0-0--0-0-0-0-8-8-5-5-

Stave 14:

E|--------------------------------------------------------------------------------------------
B|--------------------------------------------------------------------------------------------
G|--------------------------------------------------------------------------------------------
D|--------------------------------------------------------------------------------------------
A|--------------------------------------------------------------------------------------------
E|-0-0-0--0-0-0-0-0-0--0-0--0-0-0-0-0-0-0-0-0-0--0-0-1/3\1--0-0-0-0-0-0--0-0--0-0-0-0-0-0-0---

Stave 15:

E|-------------------------------------
B|-------------------------------------
G|-------------------------------------
D|---------0---------0-----------------
A|---------0---------0-----------------
E|-0-3-2-1-0-0-3-2-1-0-0-0-0-0-0-0-0-0-

Stave 16:

E|-----------------------------------------
B|-----------------------------------------
G|-----------------------------------------
D|-----------------------------------------
A|-----------5-------------5---------------
E|-0-0-0-3b0---0-0-0-0-3b0---0-3-0-5-0-6-0-

Stave 17:

E|-----------------------------------------------------------------
B|-----------------------------------------------------------------
G|-----------------------------------------------------------------
D|-----------------------------3-5-----------------------------5-7-
A|-----------------------------1-3-----------------------------3-5-
E|-1-0-0-1-0-0-1-0-0-1-0-0-1-0-----1-0-0-1-0-0-1-0-0-1-0-0-1-0-----

Stave 18:

E|---------------------------------------------
B|---------------------------------------------
G|---------------------------------------------
D|---------------------------------------------
A|---------------------------------------------
E|-0-0--0-0--0-0--0-0-0-0--0-0-0--0-0--0-0-0-0-

Stave 19:

E|----------------------------------------
B|----------------------------------------
G|----------------------------------------
D|----------------------------------------
A|----------------------------------------
E|-1-1--1-1-1-1-1--1-1-1--1-1-1-1-1-1-1-1-

Stave 20:

E|----------------------------------------
B|----------------------------------------
G|----------------------------------------
D|----------------------------------------
A|----------------------------------------
E|-0-0--0-0-0-0-0--0-0-0--0-0-0-0-0-0-0-0-

Stave 21:

E|-------------------------------------------------------------------
B|-------------------------------------------------------------------
G|-------------------------------------------------------------------
D|-------------------------------------------------------------------
A|-0-5-8-5-0-4-7-4-0-5-8-5-0-7-10-7-0-5-8-5-0-4-7-4-0-5-8-5-0-7-10-7-
E|-------------------------------------------------------------------

Stave 22:

E|------------------------------------------------------------------
B|------------------------------------------------------------------
G|------------------------------------------------------------------
D|------------------------------------------------------------------
A|-0-5-8-5-0-4-7-4-0-5-8-5-0-7-10-7-0-5-8-5-0-4-7-4-0-5-8-5---------
E|----------------------------------------------------------8-8-5-5-

Stave 23:

E|---------------------
B|---------------------
G|---------------------
D|-10-12-0-3-10-12-0-3-
A|-8--10-0-3-8--10-0-3-
E|-8--10-0-3-8--10-0-3-

Stave 24:

E|---
B|---
G|---
D|-0-
A|-0-
E|-0-

Stave 25:

E|------------------------------------------------------
B|------------------------------------------------------
G|------------------------------------------------------
D|------------------------------------------------------
A|------------------------------------------------------
E|-0-0-0-0--0-0-0-0-0--0-0-0-0--0-0-0-0--0-0-0--0-0-0-0-

http://www.guitartabcreator.com
Guitar Tab Creator is intended to store guitar tab created through the tool. It currently does not support in-line text editing. Any text you place in here will be lost. If you need to comment on your tab, please use the "Tab Notes" section located below.