Sound will begin in 5 seconds

Killing me softly ... 1

01234567891011121314151617181920212223
E
B
G
D
A
E
B
0 1 2 3 4 5 6 7 8 9 10 11 12 13 14 15 16 17 18 19 20 21 22 23
Song Science #1: How Pros Use 6 Chords to Write Hit Songs
(/) Slide Up  (\) Slide Down  (h) Hammer On  (p) Pull Off  (b) Bend (r) Release (v) Vibrato

Stave 1:

E|-------0---1---1---3---|---5---3-------3---3---|---
B|-----------1---1-------|---3-------3-----------|---
G|-----------2---2-------|---4-------------------|---
D|---0-------------------|-----------------------|---
A|-----------------------|-----------------------|---
E|-----------------------|---3-------3-----------|---

Stave 2:

E|-------5---3---1---|---0---1-----------|---
B|-------5-----------|---1-------1-------|---
G|-------3-----------|---------------2---|---
D|-------------------|---------------2---|---
A|---3---------------|---0---------------|---
E|-------------------|-----------1-------|---

Stave 3:

E|-------0---1---3---|---5---3---5---7---|---
B|-----------1-------|---0---------------|---
G|-----------2-------|---------------0---|---
D|---0---------------|-----------3-------|---
A|-------------------|-------------------|---
E|-------------------|---3---------------|---

Stave 4:

E|---8---7---5---3---5---------------|---5-------------------------------|---
B|-----------------------0-------0---|-------0-------0-------0-------0---|---
G|---------------------------5-------|-----------5---------------5-------|---
D|-----------------------------------|-----------------------------------|---
A|---0---------------0---------------|---0---------------0---------------|---
E|-----------------------------------|-----------------------------------|---

Stave 5:

E|-------8---5---5-------|---0-------0---1---|---
B|-----------6---6---6---|---0---3-----------|---
G|-----------------------|-------------------|---
D|---0-----------0-------|---3---------------|---
A|-----------------------|-------------------|---
E|-----------------------|---3-------3-------|---

Stave 6:

E|-------3---3---3---|---4---4---5---5---7---|---
B|-----------5-------|---3---------------6---|---
G|-----------4-------|---4---------------7---|---
D|-------------------|-----------------------|---
A|---3-------3-------|-----------------------|---
E|-------------------|---0-----------0-------|---

http://www.guitartabcreator.com
Guitar Tab Creator is intended to store guitar tab created through the tool. It currently does not support in-line text editing. Any text you place in here will be lost. If you need to comment on your tab, please use the "Tab Notes" section located below.