Sound will begin in 5 seconds

whole lotta love

01234567891011121314151617181920212223
E
B
G
D
A
E
B
0 1 2 3 4 5 6 7 8 9 10 11 12 13 14 15 16 17 18 19 20 21 22 23
Song Science #1: How Pros Use 6 Chords to Write Hit Songs
(/) Slide Up  (\) Slide Down  (h) Hammer On  (p) Pull Off  (b) Bend (r) Release (v) Vibrato

Stave 1:

E|-------------12----------------------------------
B|---------12------15p12---------------------------
G|--14b16-----------------15p14p12--14--12--14b16--
D|-------------------------------------------------
A|-------------------------------------------------
E|-------------------------------------------------

Stave 2:

E|----------------------------------------------
B|-------3--------------------------------------
G|--2/4-----4p2p0--4p2p0------------------------
D|------------------------2b0-----2p0-----------
A|-----------------------------2-------2--0--2--
E|----------------------------------------------

Stave 3:

E|-------------12----------------15----------------------------------------------
B|---------12------15b17--15b17------15b17------------17--20b21--17------20--17--
G|--14b16------------------------------------------------------------18----------
D|-------------------------------------------------------------------------------
A|-------------------------------------------------------------------------------
E|-------------------------------------------------------------------------------

Stave 4:

E|------19b21--19--18--17--------------------------------------------------19--------
B|--17---------------------19p17------17--17--19--17--19b21--19b21--19b21------17----
G|--------------------------------18-------------------------------------------------
D|-----------------------------------------------------------------------------------
A|-----------------------------------------------------------------------------------
E|-----------------------------------------------------------------------------------

Stave 5:

E|--
B|--
G|--
D|--
A|--
E|--

http://www.guitartabcreator.com
Guitar Tab Creator is intended to store guitar tab created through the tool. It currently does not support in-line text editing. Any text you place in here will be lost. If you need to comment on your tab, please use the "Tab Notes" section located below.