Sound will begin in 5 seconds

prog song

01234567891011121314151617181920212223
E
B
G
D
A
E
B
0 1 2 3 4 5 6 7 8 9 10 11 12 13 14 15 16 17 18 19 20 21 22 23
Song Science #1: How Pros Use 6 Chords to Write Hit Songs
(/) Slide Up  (\) Slide Down  (h) Hammer On  (p) Pull Off  (b) Bend (r) Release (v) Vibrato

(W|WW) Whole (H|HH) Half (Q|QQ) Quarter (E|EE) 8th (S|SS) 16th (T|TT) 32nd (X|XX) 64th

Stave 1:
t: E E E E E E E E E E E E E E E Q E E E E E E E E E E E E E E E Q
E|---------5---------------5-------|---------3---------------3---------------
B|-----------5---5-------5---5-----|-----------3---3-------3---3-------------
G|-------7-----7---6---6-------6---|-------5-----5---4---4-------4-----------
D|-----7-------------7-----------7-|-----5-------------5-----------5---------
A|---5-----------------------------|---3-------------------------------------
E|-5-------------------------------|-3---------------------------------------

Stave 2:
t: E E E E E E E E E E E E E E E Q E E E E E E E E E E E E E E E W W W
E|---------2---------------2-------|---------7---------------7-----|-5-5-5-|-
B|-----------2---2-------3---3-----|-----------7---7-------8---8---|-5-5-5-|-
G|-------4-----4---2---2-------2---|-------9-----9---7---7-------7-|-7-6-7-|-
D|-----4-------------4-----------4-|-----9-------------9-----------|-7-7-7-|-
A|---2-----------------------------|---7---------------------------|-5-6-5-|-
E|-2-------------------------------|-7-----------------------------|-5-6-5-|-

Stave 3:
t: W E E W W W W W W W
E|-5-----3-----2-----7-
B|-5-----3-----2-3-2-7-
G|-7-6-7-5-4-5-4-2-4-9-
D|-7-----5-----4-----9-
A|-5-----3-----2-----7-
E|-5-----3-----2-----7-

http://www.guitartabcreator.com
Guitar Tab Creator is intended to store guitar tab created through the tool. It currently does not support in-line text editing. Any text you place in here will be lost. If you need to comment on your tab, please use the "Tab Notes" section located below.