Sound will begin in 5 seconds

long prog song

01234567891011121314151617181920212223
E
B
G
D
A
E
B
0 1 2 3 4 5 6 7 8 9 10 11 12 13 14 15 16 17 18 19 20 21 22 23
Song Science #1: How Pros Use 6 Chords to Write Hit Songs
(/) Slide Up  (\) Slide Down  (h) Hammer On  (p) Pull Off  (b) Bend (r) Release (v) Vibrato

(W|WW) Whole (H|HH) Half (Q|QQ) Quarter (E|EE) 8th (S|SS) 16th (T|TT) 32nd (X|XX) 64th

Stave 1:
t: E E E E E E E E E E E E E E E E E
E|--------------5-----------------------5--------------|--
B|-----------------5-----5-----------5-----5-----------|--
G|-----------7--------7-----6-----5-----------6-----5--|--
D|--------7--------------------7-----------------7-----|--
A|-----5-----------------------------------------------|--
E|--5--------------------------------------------------|--

Stave 2:
t: E E E E E E E E E E E E E E E E E
E|--------------3-----------------------3--------------|-----
B|-----------------3-----3-----------3-----3-----------|-----
G|-----------5--------5-----4-----3-----------3-----4--|-----
D|--------5--------------------5-----------------5-----|-----
A|-----3-----------------------------------------------|-----
E|--3--------------------------------------------------|-----

Stave 3:
t: E E E E E E E E E E E E E E E E E
E|--------------2-----------------------2--------------|--
B|-----------------2-----2-----------2-----3-----------|--
G|-----------4--------4-----2-----2-----------2-----4--|--
D|--------4--------------------4-----------------4-----|--
A|-----2-----------------------------------------------|--
E|--2--------------------------------------------------|--

http://www.guitartabcreator.com
Guitar Tab Creator is intended to store guitar tab created through the tool. It currently does not support in-line text editing. Any text you place in here will be lost. If you need to comment on your tab, please use the "Tab Notes" section located below.