Sound will begin in 5 seconds

Run Luigi Run

01234567891011121314151617181920212223
E
B
G
D
A
E
B
0 1 2 3 4 5 6 7 8 9 10 11 12 13 14 15 16 17 18 19 20 21 22 23
Song Science #1: How Pros Use 6 Chords to Write Hit Songs
(/) Slide Up  (\) Slide Down  (h) Hammer On  (p) Pull Off  (b) Bend (r) Release (v) Vibrato

Stave 1:

E|-------------------------------------------------------------
B|-------------------------------------------------------------
G|--14--14--14--14--14--14--12--12--12--12/14--14--14--14--14--
D|--12--12--12--12--12--12--10--10--10--10-12--12--12--12--12--
A|-------------------------------------------------------------
D|-------------------------------------------------------------

Stave 2:

E|--------------------------------------------------------------
B|--------------------------------------------------------------
G|--15--15--15--15--15--15--15--15--15--15--15--15--15--15--15--
D|--13--13--13--13--13--13--13--13--13--13--13--13--13--13--13--
A|--------------------------------------------------------------
D|--------------------------------------------------------------

Stave 3:

E|----------------------------------------------------------------------
B|------------------------------15v----------------------------------15-
G|------14------14------14-------------------14------14------14------14b
D|--12------12------12------12-----------12------12------12------12-----
A|----------------------------------------------------------------------
D|----------------------------------------------------------------------

Stave 4:

E|-----------------------------------
B|------------------------------16---
G|------15------15------15------15v--
D|--13------13------13------13-------
A|-----------------------------------
D|-----------------------------------

Stave 5:

E|----------------------
B|----------------------
G|----------------------
D|----------------------
A|--0--0--1--2r1--0/12--
D|--0--0--1----1--0-12--

http://www.guitartabcreator.com
Guitar Tab Creator is intended to store guitar tab created through the tool. It currently does not support in-line text editing. Any text you place in here will be lost. If you need to comment on your tab, please use the "Tab Notes" section located below.