Sound will begin in 5 seconds

Lethal Purple Chips

01234567891011121314151617181920212223
E
B
G
D
A
E
B
0 1 2 3 4 5 6 7 8 9 10 11 12 13 14 15 16 17 18 19 20 21 22 23
Song Science #1: How Pros Use 6 Chords to Write Hit Songs
(/) Slide Up  (\) Slide Down  (h) Hammer On  (p) Pull Off  (b) Bend (r) Release (v) Vibrato

Stave 1:

E|-------------------------------------------------------------------------------------
B|-----10v-------10/13v-------10v-------10/12v-------10v-------10/13-------10----------
G|--8---------8------------8---------8------------8---------8-----------8--------8b----
D|-------------------------------------------------------------------------------------
A|-------------------------------------------------------------------------------------
D|-------------------------------------------------------------------------------------

Stave 2:

E|--------------------------------------------------------------------------
B|--------------------------------------------------------------------------
G|--8--8--8--8--8--8--8--8--8--8--8--8--7--7--7--7--7--7--4--4--4--4--4--4--
D|--x--x--x--x--x--x--x--x--x--x--x--x--x--x--x--x--x--x--x--x--x--x--x--x--
A|--6--6--6--6--6--6--6--6--6--6--6--6--5--5--5--5--5--5--2--2--2--2--2--2--
D|--------------------------------------------------------------------------

Stave 3:

E|-------------
B|-------------
G|--4/8v----7--
D|-------------
A|-------------
D|-------------

http://www.guitartabcreator.com
Guitar Tab Creator is intended to store guitar tab created through the tool. It currently does not support in-line text editing. Any text you place in here will be lost. If you need to comment on your tab, please use the "Tab Notes" section located below.