With You Friends

Chords

01234567891011121314151617181920212223
E
B
G
D
A
E
B
0 1 2 3 4 5 6 7 8 9 10 11 12 13 14 15 16 17 18 19 20 21 22 23
(/) Slide Up  (\) Slide Down  (h) Hammer On  (p) Pull Off  (b) Bend (r) Release (v) Vibrato

E|----------------------------------------------------------------------
B|----------------------------------------------------------------------
G|--11------11--11------14--------------------------11--11--14--11------
D|------12----------12------14--12--14--12--12--14------------------12--
A|----------------------------------------------------------------------
E|----------------------------------------------------------------------



E|------------------------------------------------------------------------------
B|------------------------------------------------------------------------------
G|--14--11--------------11------14----------------------11--------------11------
D|----------14--12--14------12------12--14--12------14------14--12--14------14--
A|----------------------------------------------12------------------------------
E|------------------------------------------------------------------------------



E|----------------------
B|----------------------
G|----------11------14--
D|--12----------12------
A|------12--------------
E|----------------------



E|--
B|--
G|--
D|--
A|--
E|--
							http://www.guitartabcreator.com
[[],[],[],[],[],[]]

Member for

8 years 9 months
Submitted by kaikaikai27 on Tue, 2011-08-30 22:17