Sound will begin in 5 seconds

Panic Switch by Silversun Pickups (Rocksmith)

01234567891011121314151617181920212223
E
B
G
D
A
E
B
0 1 2 3 4 5 6 7 8 9 10 11 12 13 14 15 16 17 18 19 20 21 22 23
Song Science #1: How Pros Use 6 Chords to Write Hit Songs
(/) Slide Up  (\) Slide Down  (h) Hammer On  (p) Pull Off  (b) Bend (r) Release (v) Vibrato

Stave 1:

E|--------------------------------------------------------------------------
B|--------------------------------------------------------------------------
G|--------------------------------------------------------------------------
D|--3--------------1--3--------------1--3--------------1--3--------------1--
A|--------1-----4-----------1-----4-----------1-----4-----------1-----4-----
E|-----1-----4-----------1-----4-----------1-----4-----------1-----4--------

Stave 2:

E|----------------------------------------------------------------------
B|----------------------------------------------------------------------
G|--------3--5--5--------3-------------------3--5--5--------------3-----
D|--3--6-----------3--6-----5--5--1--1h3--6-----------3--3--3--6-----5--
A|----------------------------------------------------------------------
E|----------------------------------------------------------------------

Stave 3:

E|---------------------------------------------------------------------------------------------
B|---------------------------------------------------------------------------------------------
G|--13--13--13--13--13--15--15--12--12--12--12--12--12--12--12--12--12--13--13--10--10h12--10--
D|---------------------------------------------------------------------------------------------
A|---------------------------------------------------------------------------------------------
E|---------------------------------------------------------------------------------------------

Stave 4:

E|-----------------------------------------------------------------------------
B|-----------------------------------------------------------------------------
G|--13--13--13--13--13--15--12--12--12--12--12--12--12--12--12--12--15--15--15b
D|-----------------------------------------------------------------------------
A|-----------------------------------------------------------------------------
E|-----------------------------------------------------------------------------

Stave 5:

E|------------------------------------------------------------------------------
B|------------------------------------------------------------------------------
G|--------------13--13--13--13--13--13--13--13--13--13--13--13--13--13--13--13--
D|--------1--1------------------------------------------------------------------
A|--1--3------------------------------------------------------------------------
E|------------------------------------------------------------------------------

Stave 6:

E|------------------------------------------------------------------------------------------------------
B|------------------------------------------------------------------------------------------------------
G|--13--13--13--13--13--13--13--13--13--13--13--13--13--13--13--13--13--13--13--13--13--13--13--13--13--
D|------------------------------------------------------------------------------------------------------
A|------------------------------------------------------------------------------------------------------
E|------------------------------------------------------------------------------------------------------

Stave 7:

E|---------
B|---------
G|--13--13b
D|---------
A|---------
E|---------

Stave 8:

E|-----
B|--6--
G|--6--
D|--6--
A|--4--
E|-----

http://www.guitartabcreator.com
Guitar Tab Creator is intended to store guitar tab created through the tool. It currently does not support in-line text editing. Any text you place in here will be lost. If you need to comment on your tab, please use the "Tab Notes" section located below.