the only exception.

Chords
01234567891011121314151617181920212223
E
B
G
D
A
E
B
0 1 2 3 4 5 6 7 8 9 10 11 12 13 14 15 16 17 18 19 20 21 22 23
(/) Slide Up  (\) Slide Down  (h) Hammer On  (p) Pull Off  (b) Bend (r) Release (v) Vibrato

E|------------------------------------------------------
B|--4--5--7--7--5--4--4----7--5--4-------0--4--4-----0--
G|----------------------------------6-------------------
D|------------------------------------------------6-----
A|------------------------------------------------------
E|------------------------------------------------------



E|---------------------------------------------------------
B|--0--4--5--7--7--5--4--4----0--7--5--4-------4-----0--0--
G|----------------------------------------6-------6--------
D|---------------------------------------------------------
A|---------------------------------------------------------
E|---------------------------------------------------------



E|--------------7-------------4-------------------
B|--0--4--5--7-----5--4----7-----4-------5--4--0--
G|----------------------------------6-------------
D|------------------------------------------------
A|------------------------------------------------
E|------------------------------------------------



E|---------------------------------------------------------------------
B|--0--4--5--7--7--5--4--4-------0--7--5--5--4-------0-----4--4-----0--
G|--------------------------6-------------------6-------6--------6-----
D|---------------------------------------------------------------------
A|---------------------------------------------------------------------
E|---------------------------------------------------------------------



E|-------------------------------------------
B|--------0-----0--4----------0-----4--4-----
G|-----------6-------------------6--------6--
D|--4--6--------------4----4-----------------
A|-------------------------------------------
E|-------------------------------------------



E|-------------------------------
B|--0--4----------0-----4--4-----
G|-------------------6--------6--
D|--------4----4-----------------
A|-------------------------------
E|-------------------------------



E|-------------------------------
B|--0--4----------0-----4--4-----
G|-------------------6--------6--
D|--------4----4-----------------
A|-------------------------------
E|-------------------------------



E|----------------------------------
B|--0--4--0----0--0-----4--4-----0--
G|-------------------6--------6-----
D|----------------------------------
A|----------------------------------
E|----------------------------------
							http://www.guitartabcreator.com

Member for

8 years 9 months
Submitted by juliandarro on Fri, 2011-08-19 01:46