Sound will begin in 5 seconds

Best That You Can Do By Christopher Cross

01234567891011121314151617181920212223
E
B
G
D
A
E
B
0 1 2 3 4 5 6 7 8 9 10 11 12 13 14 15 16 17 18 19 20 21 22 23
Song Science #1: How Pros Use 6 Chords to Write Hit Songs
(/) Slide Up  (\) Slide Down  (h) Hammer On  (p) Pull Off  (b) Bend (r) Release (v) Vibrato

Stave 1:

E|-----------3--------3-----0--------1--0--------------------------------------0--------
B|--6--------3-----------6--5--------1-----3--1--3--3--3--3-----------3--3--2-----0--2--
G|--7--7--5--4--4-----------5--5-----2-----------3--3--3--3--------1-----2--------2--2--
D|--7--------5-----5--------5-----5--3-----------3-----------3--2--------2--------2--2--
A|--5--------5--------------3--------------------1--------------------------------------
E|-----------3--------------------------------------------------------------------------

Stave 2:

E|--------------3-----------------------1--0--------------------------------------0--------
B|--6--6--6--6--3--------3--5-----5-----1-----3--1--3--3--3--3-----------3--3--2-----0-----
G|--7-----------4--4--------5--------5--2-----------3-----------------1-----2--------2-----
D|--7-----------5-----5-----5-----------3-----------3-----------3--2--------2--------2-----
A|--5-----------5-----------3--3--------------------1--------------------------------------
E|--------------3--------------------------------------------------------------------------

Stave 3:

E|-----------5--------5-----5--4--2-----------------2--2--2--2--------------------------
B|--------3--------3-----3-----------5--------5-----2--3--2--3--------0--------------5--
G|-----2--------2--------------------6-----6-----6--4--4--4--4-----------9--------4-----
D|--0--------------------------------7--------------4--4--4--4-----7-----------6--------
A|-----------------------------------0--0-----0-----2--2--2--2--0-----------4-----------
E|--------------------------------------------------------------------------------------

Stave 4:

E|-----------5--------5-----5--4--2-----------------------------------------------
B|--------3--------3-----3-----------5--------7--7--5-----3--3--3--3--3--3--3--3--
G|-----2--------2--------------------6-----6--2--------6--4--4--4--4--4--4--4--4--
D|--0--------------------------------7--------4-----------4--4--4--4--4--4--4--4--
A|-----------------------------------0--0-----2-----------2--2--2--2--2--2--2--2--
E|--------------------------------------------------------------------------------

Stave 5:

E|-----------------------------------
B|-----3--2--------------0--5--------
G|-----------2--------6-----------6--
D|-----------------------------7-----
A|--2--------------7-----------------
E|--------------5--------------------

http://www.guitartabcreator.com
Guitar Tab Creator is intended to store guitar tab created through the tool. It currently does not support in-line text editing. Any text you place in here will be lost. If you need to comment on your tab, please use the "Tab Notes" section located below.