Sound will begin in 5 seconds

Family Machine

01234567891011121314151617181920212223
E
B
G
D
A
E
B
0 1 2 3 4 5 6 7 8 9 10 11 12 13 14 15 16 17 18 19 20 21 22 23
Song Science #1: How Pros Use 6 Chords to Write Hit Songs
(/) Slide Up  (\) Slide Down  (h) Hammer On  (p) Pull Off  (b) Bend (r) Release (v) Vibrato

Stave 1:

C |------------------------------------------------------------------------
G |------------------------------------------------------------------------
Eb|------------------------------------------------------------------------
Bb|----------------------------3--3--3-------------------------------------
F |-------------------------------------2--2--2----------------------------
Bb|--9--0--2----0--2h3p2p0--0--------------------3--3--3--2----0--2h3p2p0--

Stave 2:

C |---------------------------------------------------------------------
G |---------------------------------------------------------------------
Eb|---------------------------------------------------------------------
Bb|---------------------------------------------------------------------
F |----------------------------3--3--3--3--3--3--3--3--3----------------
Bb|--9--0--2----0--2h3p2p0--0-----------------------------5--5----8--8--

Stave 3:

C |-----------------------------------------------------------------------------
G |-----------------------------------------------------------------------------
Eb|-----------------------------------------------------------------------------
Bb|-----------------------------------------------------------------------------
F |--------------------------------------7--------------------------------------
Bb|--9--9--9--9--9--9--9--9--9--9--9--9-----8--0--2--2--2--0--2--0--2--3--2--0--

Stave 4:

C |--------------------------------------------------
G |--------------------------------------------------
Eb|--------------------------------------------------
Bb|-----------------------------------------0--2--3--
F |--------------------------------------------------
Bb|--0--2----0--0--2----0--0--2----0--0--2-----------

Stave 5:

C |-------------------------------------------------
G |-------------------------------------------------
Eb|-------------------------------------------------
Bb|-------------------------------------------------
F |-----------------------------------------2p0-----
Bb|--0--2----0--0--2----0--0--2----0--0--2-------3--

Stave 6:

C |-------------------------------------------
G |-------------------------------------------
Eb|-------------------------------------------
Bb|-------------------------------------------
F |------3--3--3--3--3--3--3--3----5--5----5--
Bb|-------------------------------------------

http://www.guitartabcreator.com
Guitar Tab Creator is intended to store guitar tab created through the tool. It currently does not support in-line text editing. Any text you place in here will be lost. If you need to comment on your tab, please use the "Tab Notes" section located below.