Sound will begin in 5 seconds

CUBA Main Riff

01234567891011121314151617181920212223
E
B
G
D
A
E
B
0 1 2 3 4 5 6 7 8 9 10 11 12 13 14 15 16 17 18 19 20 21 22 23
Song Science #1: How Pros Use 6 Chords to Write Hit Songs
(/) Slide Up  (\) Slide Down  (h) Hammer On  (p) Pull Off  (b) Bend (r) Release (v) Vibrato

Stave 1:

C |-------------------------------------------------------------------------
G |-------------------------------------------------------------------------
Eb|-------------------------------------------------------------------------
Bb|-------------------------------------------------------------------------
F |-------------------------------------------------------------------------
Bb|--12p0----0--0--0--0----0--0--0--8p0----0--0--12h13p12p0----7h8p7p0------

Stave 2:

C |--------------------------------------------------------------------------------
G |--------------------------------------------------------------------------------
Eb|--------------------------------------------------------------------------------
Bb|--------------------------------------------------------------------------------
F |-----------------------------------------------------4--4--4--------------------
Bb|--12p0----0--0--0--0----0----0--0--6--6--6--5--5--5-----------5--5--5--5h6p5p0--

Stave 3:

C |-------------------------------------------------------------------------
G |-------------------------------------------------------------------------
Eb|-------------------------------------------------------------------------
Bb|-------------------------------------------------------------------------
F |-------------------------------------------------------------------------
Bb|--12p0----0--0--0--0----0----0--0--8p0----0--0----12h13p12p0----7h8p7p0--

Stave 4:

C |----------------------------------------------------------------
G |----------------------------------------------------------------
Eb|----------------------------------------------------------------
Bb|----------------------------------------------------------------
F |------------------------------------------4---------5-----------
Bb|--12p0----0--0--0--0----0----0--0--3h5p3-----3h5p3-----6--5--0--

http://www.guitartabcreator.com
Guitar Tab Creator is intended to store guitar tab created through the tool. It currently does not support in-line text editing. Any text you place in here will be lost. If you need to comment on your tab, please use the "Tab Notes" section located below.