our father

Chords
01234567891011121314151617181920212223
E
B
G
D
A
E
B
0 1 2 3 4 5 6 7 8 9 10 11 12 13 14 15 16 17 18 19 20 21 22 23
(/) Slide Up  (\) Slide Down  (h) Hammer On  (p) Pull Off  (b) Bend (r) Release (v) Vibrato
E|-----------------------------------------------------------------------------------------------------
B|-----------------------------------------------------------------------------------------------------
G|-----------------------------------------------------------------------------------------------------
D|-----------------------------------------------------------------------------------------------------
A|--7--5--3--2--0--0--2--3--5--9--9--7--5--3--1--3--0--------0--2--3--5--9--9--7--5--3--1--3--0--------
E|-----------------------------------------------------2--0--------------------------------------2--0--



E|-----------------
B|-----------------
G|-----------------
D|-----------------
A|--5--3--2--0--7--
E|-----------------



E|--------------------------------------------------------------------------------------------
B|--------------------------------------------------------------------------------------------
G|--------------------------------------------------------------------------------------------
D|-----------------------------------2--3--2-----------------------2--3--2--------------------
A|--0--2--3--5--3--3--3--3--5--5--5-----------0--3--3--3--3--5--5-----------0--2--3--5--3--3--
E|--------------------------------------------------------------------------------------------



E|-----------------------------------------------------------
B|-----------------------------------------------------------
G|-----------------------------------------------------------
D|-----------2--3--2-----------------------------------------
A|--5--5--5-----------0--0--0--2--3--5--3--5--2--------------
E|-----------------------------------------------3--5--3--5--



E|--------------------------------
B|--------------------------------
G|--------------------------------
D|-----------2-----------------3--
A|--0--2--3-----3--2--0--2--3-----
E|--------------------------------



E|-----------------------
B|-----------------------
G|-----------------------
D|--2-----------------2--
A|-----3--2--0--2--3-----
E|-----------------------



E|-----------------------
B|-----------------------
G|-----------------------
D|--2-----------------3--
A|-----3--2--0--2--3-----
E|-----------------------



E|-----------------
B|-----------------
G|-----------------
D|--2-----------3--
A|-----3--2--0-----
E|-----------------



E|--------------------------
B|--------------------------
G|--------------------------
D|--3--------------------3--
A|-----3--2--0--2--3--------
E|--------------------3-----



E|--------------------------------------------------------------------------
B|--------------------------------------------------------------------------
G|--------------------------------------------------------------------------
D|--2-----------------2--2-----------------3--3-----------------------------
A|-----3--2--0--2--3--------3--2--0--2--3--------3--2--0--2--3--5--3-----0--
E|--------------------------------------------------------------------3-----



E|--------------------------------------------------------------------------
B|--------------------------------------------------------------------------
G|--------------------------------------------------------------------------
D|--------------------2--3--2--------------------------------------2--3--2--
A|--0--2--3--5--3--5--------------------------------2--3--2--3--5-----------
E|-----------------------------3--5--3--5--5--3--5--------------------------



E|--------------------------------------------------------------------------------------------------------
B|--------------------------------------------------------------------------------------------------------
G|--------------------------------------------------------------------------------------------------------
D|-----2-----2--0--2--3--------------------------2-----2--------------------------------------------------
A|--0-----0--------------3--2--1--1--0--1--3--0-----0-----0--2--3--5--5--5--3--3--3--2--2--2-----------0--
E|--------------------------------------------------------------------------------------------3--3--3-----



E|--
B|--
G|--
D|--
A|--
E|--
							http://www.guitartabcreator.com
[[],[],[],[],[],[]]

Member for

8 years 2 months
Submitted by josey wales on Fri, 2012-03-16 15:02