Sound will begin in 5 seconds

Watch the World Go By (key of D) capo 2nd fret (last chord on stave two resolves to stave 1) 108 tempo drums (ON EP)

Chords
01234567891011121314151617181920212223
E
B
G
D
A
E
B
0 1 2 3 4 5 6 7 8 9 10 11 12 13 14 15 16 17 18 19 20 21 22 23
Song Science #1: How Pros Use 6 Chords to Write Hit Songs
(/) Slide Up  (\) Slide Down  (h) Hammer On  (p) Pull Off  (b) Bend (r) Release (v) Vibrato

Stave 1:

E|--------------------------9----------------------7-----------------------------------------
B|--12----------------------10---------------------8--------------------7-----------------3--
G|--11----------14--12--11--9-----------12--11--9--7----------10--9--7--6--------6--9--6-----
D|--12------12--------------11------11-------------9-------9------------7-----7-----------4--
A|--14--14------------------12--12-----------------10--10---------------9--9--------------5--
E|-------------------------------------------------------------------------------------------

Stave 2:

E|--2--------------2--5--2--------------------
B|--2-----------3--3--------5--3-----------7--
G|--2--------4--------------------6--------6--
D|--3--2--5--------------------------2--4--7--
A|--3--------------------------------------9--
E|--2-----------------------------------------

Stave 3:

E|--------------3-----5-----
B|--3-----3-----3--3--5-----
G|--------5-----4-----6-----
D|--4--4--4--4--5--4--7--4--
A|--5--4--5--4--5--5--7--4--
E|--------------3-----5-----

Stave 4:

E|----
B|--3--
G|----
D|--4--
A|--5--
E|----

http://www.guitartabcreator.com
Guitar Tab Creator is intended to store guitar tab created through the tool. It currently does not support in-line text editing. Any text you place in here will be lost. If you need to comment on your tab, please use the "Tab Notes" section located below.