Sound will begin in 5 seconds

Am pentatonic patterns

01234567891011121314151617181920212223
E
B
G
D
A
E
B
0 1 2 3 4 5 6 7 8 9 10 11 12 13 14 15 16 17 18 19 20 21 22 23
Song Science #1: How Pros Use 6 Chords to Write Hit Songs
(/) Slide Up  (\) Slide Down  (h) Hammer On  (p) Pull Off  (b) Bend (r) Release (v) Vibrato

Stave 1:

E|--------------------------------5--8--5--------------------------------
B|--------------------------5--8-----------8--5--------------------------
G|--------------------5--7-----------------------7--5--------------------
D|--------------5--7-----------------------------------7--5--------------
A|--------5--7-----------------------------------------------7--5--------
E|--5--8-----------------------------------------------------------8--5--

Stave 2:

E|------------------------------------8--10--8------------------------------------
B|-----------------------------8--10------------10--8-----------------------------
G|-----------------------7--9--------------------------9--7-----------------------
D|----------------7--10--------------------------------------10--7----------------
A|---------7--10----------------------------------------------------10--7---------
E|--8--10------------------------------------------------------------------10--8--

Stave 3:

E|-----------------------------------------10--12--10-----------------------------------------
B|---------------------------------10--13--------------13--10---------------------------------
G|--------------------------9--12------------------------------12--9--------------------------
D|------------------10--12--------------------------------------------12--10------------------
A|----------10--12------------------------------------------------------------12--10----------
E|--10--12----------------------------------------------------------------------------12--10--

Stave 4:

E|------------------------------------------12--15--12------------------------------------------
B|----------------------------------13--15--------------15--13----------------------------------
G|--------------------------12--14------------------------------14--12--------------------------
D|------------------12--14----------------------------------------------14--12------------------
A|----------12--15--------------------------------------------------------------15--12----------
E|--12--15------------------------------------------------------------------------------15--12--

Stave 5:

E|--------------------------------3--5--3--------------------------------
B|--------------------------3--5-----------5--3--------------------------
G|--------------------2--5-----------------------5--2--------------------
D|--------------2--5-----------------------------------5--2--------------
A|--------3--5-----------------------------------------------5--3--------
E|--3--5-----------------------------------------------------------5--3--

http://www.guitartabcreator.com
Guitar Tab Creator is intended to store guitar tab created through the tool. It currently does not support in-line text editing. Any text you place in here will be lost. If you need to comment on your tab, please use the "Tab Notes" section located below.