Sound will begin in 5 seconds

Orchestra 1

01234567891011121314151617181920212223
E
B
G
D
A
E
B
0 1 2 3 4 5 6 7 8 9 10 11 12 13 14 15 16 17 18 19 20 21 22 23
Song Science #1: How Pros Use 6 Chords to Write Hit Songs
(/) Slide Up  (\) Slide Down  (h) Hammer On  (p) Pull Off  (b) Bend (r) Release (v) Vibrato

Stave 1:

E|-20p17----20p17----20p17----20p16----20p16----20p16----
B|-------19-------19-------19-------18-------18-------18-
G|-------------------------------------------------------
D|-------------------------------------------------------
A|-------------------------------------------------------
E|-------------------------------------------------------

Stave 2:

E|-20p14----20p14----21p14----18p14----17p14----18p14----
B|-------------------------------------------------------
G|-------17-------17-------17-------17-------17-------17-
D|-------------------------------------------------------
A|-------------------------------------------------------
E|-------------------------------------------------------

Stave 3:

E|----------------------
B|----------20p19p16\15-
G|-16h17h20-------------
D|----------------------
A|----------------------
E|----------------------

http://www.guitartabcreator.com
Guitar Tab Creator is intended to store guitar tab created through the tool. It currently does not support in-line text editing. Any text you place in here will be lost. If you need to comment on your tab, please use the "Tab Notes" section located below.