Sound will begin in 5 seconds

明月天涯

01234567891011121314151617181920212223
E
B
G
D
A
E
B
0 1 2 3 4 5 6 7 8 9 10 11 12 13 14 15 16 17 18 19 20 21 22 23
(/) Slide Up  (\) Slide Down  (h) Hammer On  (p) Pull Off  (b) Bend (r) Release (v) Vibrato

Stave 1:

E|----------7--------------------12----14-15-14-12-14-------------------------------------------
B|---7-8-10------10-8-10-8-10-12----------------------12-15-------------------------------------
G|-9--------------------------------------------------------14-12-11-12-14-12-------------------
D|----------------------------------------------------------------------------14----12-14-12----
A|-------------------------------------------------------------------------------------------12-
E|----------------------------------------------------------------------------------------------

Stave 2:

E|----------------------------------------------------------------------------------------
B|-------------------------------------------------12-------12----15-13-12----------------
G|-------------------------------------------12-14----12-14----------------12-14-11-12----
D|-------------------------------------12-14-------------------------------------------14-
A|-10-12-10----14----12----12----12-14----------------------------------------------------
E|----------12----------14----14----------------------------------------------------------

Stave 3:

E|---------------------------------------------------------------10-14-15-14----------14-15-17-19-20-19-
B|-------------------------------------------------------8-10-12----------------15-17-------------------
G|--------------------------------------------------9-11------------------------------------------------
D|-14----12--------------------------7-----9------------------------------------------------------------
A|----14----12-14-10----7-----10------------------------------------------------------------------------
E|------------------------0-0----0-0---0-0---0-0--------------------------------------------------------

Stave 4:

E|-22-
B|----
G|----
D|----
A|----
E|----

http://www.guitartabcreator.com
Guitar Tab Creator is intended to store guitar tab created through the tool. It currently does not support in-line text editing. Any text you place in here will be lost. If you need to comment on your tab, please use the "Tab Notes" section located below.