Sound will begin in 5 seconds

new 1

01234567891011121314151617181920212223
E
B
G
D
A
E
B
0 1 2 3 4 5 6 7 8 9 10 11 12 13 14 15 16 17 18 19 20 21 22 23
Song Science #1: How Pros Use 6 Chords to Write Hit Songs
(/) Slide Up  (\) Slide Down  (h) Hammer On  (p) Pull Off  (b) Bend (r) Release (v) Vibrato

Stave 1:

E|---------------------------------------------------
B|---------------------------------------------------
G|---------------------------------------------------
D|----------5-4----------7-5----------5-4------------
A|-7----5-7-----7----5-7-----7----5-7-----5----5--2--
E|---------------------------------------------------

Stave 2:

E|---------------------------------------------------
B|---------------------------------------------------
G|---------------------------------------------------
D|----------5-4----------7-5----------5-4------------
A|-7----5-7-----7----5-7-----7----5-7-----5----5--2--
E|---------------------------------------------------

Stave 3:

E|-------------------------------------------------------------------------------------------------
B|-------------------------------------------------------------------------------------------------
G|-------------------------------------------------------------------------------------------------
D|-------------------------------------------------------------------------------------------------
A|------------------------------------------------------------------3--3-3-3-3-3-3-3-3-3-3-3-3-3-3-
E|-0--0-0-0-0-0-0-0-0-0-0-0-0-0-0-0-0-0-0-0-0-0-0-0-0-0-0-0-0-0-0-0--------------------------------

Stave 4:

E|-------------------------
B|-------------------------
G|-------------------------
D|-------------------------
A|------------------2------
E|-0--0-0-0-0-0-0-0----3-5-

Stave 5:

E|-------------------------------------------------------------------------------------------------
B|-------------------------------------------------------------------------------------------------
G|-------------------------------------------------------------------------------------------------
D|-------------------------------------------------------------------------------------------------
A|------------------------------------------------------------------5--5-5-5-5-5-5-5-5-5-5-5-5-5-5-
E|-0--0-0-0-0-0-0-0-0-0-0-0-0-0-0-0-0-0-0-0-0-0-0-0-0-0-0-0-0-0-0-0--------------------------------

Stave 6:

E|----------------------------------------------
B|----------------------------------------------
G|----------------------------------------------
D|----------------------------------------------
A|-2--2-2-2-2-2-2-3--3-3-3-3-3-3-5--5-5-5-5-5-5-
E|----------------------------------------------

Stave 7:

E|--------------------------------------------------
B|--------------------------------------------------
G|--------------------------------------------------
D|----------5-4----------7-5----------5-4-----------
A|-7----5-7-----7----5-7-----7----5-7-----5----5--2-
E|--------------------------------------------------

Stave 8:

E|-------------------------------------------------------------------------------------------------
B|-------------------------------------------------------------------------------------------------
G|-------------------------------------------------------------------------------------------------
D|-------------------------------------------------------------------------------------------------
A|------------------------------------------------------------------3--3-3-3-3-3-3-3-3-3-3-3-3-3-3-
E|-0--0-0-0-0-0-0-0-0-0-0-0-0-0-0-0-0-0-0-0-0-0-0-0-0-0-0-0-0-0-0-0--------------------------------

Stave 9:

E|-------------------------
B|-------------------------
G|-------------------------
D|-------------------------
A|------------------2------
E|-0--0-0-0-0-0-0-0----3-5-

Stave 10:

E|-------------------------------------------------------------------------------------------------
B|-------------------------------------------------------------------------------------------------
G|-------------------------------------------------------------------------------------------------
D|-------------------------------------------------------------------------------------------------
A|------------------------------------------------------------------5--5-5-5-5-5-5-5-5-5-5-5-5-5-5-
E|-0--0-0-0-0-0-0-0-0-0-0-0-0-0-0-0-0-0-0-0-0-0-0-0-0-0-0-0-0-0-0-0--------------------------------

Stave 11:

E|----------------------------------------------
B|----------------------------------------------
G|----------------------------------------------
D|----------------------------------------------
A|-2--2-2-2-2-2-2-3--3-3-3-3-3-3-5--5-5-5-5-5-5-
E|----------------------------------------------

Stave 12:

E|----------------------------------------------------------------
B|----------------------------------------------------------------
G|----------------------------------------------------------------
D|----------------------------------------------------------------
A|-----9-----9-----9-----9-----10------9-----9-----9-----9-----7--
E|-7-7---7-7---7-7---7-7---7-7-----7-7---7-7---7-7---7-7---7-7----

Stave 13:

E|----------------------------------------------------------
B|----------------------------------------------------------
G|----------------------------------------------------------
D|----------------------------------------------------8-8-9-
A|-----9-----9-----9-----9-----10-----9-----9-----9-9-------
E|-7-7---7-7---7-7---7-7---7-7----7-7---7-7---7-7-----------

Stave 14:

E|-------------------------------------------------------------------------------------------------
B|-------------------------------------------------------------------------------------------------
G|-------------------------------------------------------------------------------------------------
D|-------------------------------------------------------------------------------------------------
A|-------------------------------------------------2-2-2-2-2-2-2-2---------------------------------
E|-3-3-3-3-3-3-3-3-3-3-3-3-3-3-3-3-2-2-2-2-2-2-2-2-----------------0-0-0-0-0-0-0-0-0-0-0-0-0-0-0-0-

http://www.guitartabcreator.com
Guitar Tab Creator is intended to store guitar tab created through the tool. It currently does not support in-line text editing. Any text you place in here will be lost. If you need to comment on your tab, please use the "Tab Notes" section located below.