Sound will begin in 5 seconds

007 Theme Song Standard Tuning Tabbed by: Jarred Reid

01234567891011121314151617181920212223
E
B
G
D
A
E
B
0 1 2 3 4 5 6 7 8 9 10 11 12 13 14 15 16 17 18 19 20 21 22 23
Song Science #1: How Pros Use 6 Chords to Write Hit Songs
(/) Slide Up  (\) Slide Down  (h) Hammer On  (p) Pull Off  (b) Bend (r) Release (v) Vibrato

Stave 1:

E|-----0-----0-----0-----0-----0-----0-----0-----0--
B|--0-----1-----2-----1-----0-----1-----2-----1-----
G|--------------------------------------------------
D|--------------------------------------------------
A|--------------------------------------------------
E|--------------------------------------------------

Stave 2:

E|-------------------------------------------------------------------------------------------
B|-------------------------------------------------------------------------------------------
G|-------------------------------------------------------------------------------------------
D|-------------------------------------------------------------------------------------------
A|-------------------------------------------------------------------------------------------
E|--0----2--2--2----2----0--0--0----0----3--3--3----3--2--2--2-------------------------------

Stave 3:

E|-------------------------------------------------------------------------------
B|-------------------------------------------------------------------------------
G|-------------------------------------------------------------------------------
D|-------------------------------------------------------------------------------
A|----------------------------------------------------------------6\5------------
E|--0----2--2--2----2----0--0--0----0--3--3--3----3----2--1--0---------7p5h7-----

Stave 4:

E|--------11\10v-----------------------------------------
B|-----8----------------11h12v----8h10p8--7v-------------
G|--9---------------12-----------------------------9\6v--
D|----------------------------------------------9--------
A|-------------------------------------------------------
E|-------------------------------------------------------

Stave 5:

E|--------11\10v-----------------------------------------
B|-----8----------------11h12v----8h10p8--7v-------------
G|--9---------------12-----------------------------8h9v--
D|----------------------------------------------9--------
A|-------------------------------------------------------
E|-------------------------------------------------------

Stave 6:

E|--0--0----0--2--2--2----3--3----3--2--2--2----0--0----0--2--2--2----3--3----3--2--2--2--
B|--0--0----0--2--2--2----3--3----3--2--2--2----0--0----0--2--2--2----3--3----3--2--2--2--
G|--0--0----0--2--2--2----4--4----4--2--2--2----0--0----0--2--2--2----4--4----4--2--2--2--
D|----------------------------------------------------------------------------------------
A|----------------------------------------------------------------------------------------
E|----------------------------------------------------------------------------------------

Stave 7:

E|--7--7-------7--7-----7--7--7--7--7--7--
B|----------------------------------------
G|--4--4-------4--4-----4--4--4--4--4--4--
D|----------------------------------------
A|----------------------------------------
E|----------7--------7--------------------

Stave 8:

E|--------------------------------------------------------------------------------------------------
B|--------------------------------------------------------------------------------------------------
G|--------------------------------------------------------------------------------------------------
D|--2--2--2--2--2--2--2--2--2--2--2--2--2--2--2--2--2--2--2--2--2--2--2--2--2--2--2--2--2--2--2--2--
A|--2--2--2--2--2--2--2--2--3--3--3--3--3--3--3--3--4--4--4--4--4--4--4--4--3--3--3--3--3--3--3--3--
E|--------------------------------------------------------------------------------------------------

Stave 9:

E|--------------------------------------------------------------------------------------------------
B|--------------------------1--1--1--1--1--1--1--1--2--2--2--2--2--2--2--2--1--1--1--1--1--1--1--1--
G|--------------------------------------------------------------------------------------------------
D|--2--2--2--2--2--2--2--2--2--2--2--2--2--2--2--2--2--2--2--2--2--2--2--2--2--2--2--2--2--2--2--2--
A|--2--2--2--2--2--2--2--2--3--3--3--3--3--3--3--3--4--4--4--4--4--4--4--4--3--3--3--3--3--3--3--3--
E|--------------------------------------------------------------------------------------------------

http://www.guitartabcreator.com
Guitar Tab Creator is intended to store guitar tab created through the tool. It currently does not support in-line text editing. Any text you place in here will be lost. If you need to comment on your tab, please use the "Tab Notes" section located below.