Sound will begin in 5 seconds

Petrucci Style song

01234567891011121314151617181920212223
E
B
G
D
A
E
B
0 1 2 3 4 5 6 7 8 9 10 11 12 13 14 15 16 17 18 19 20 21 22 23
Song Science #1: How Pros Use 6 Chords to Write Hit Songs
(/) Slide Up  (\) Slide Down  (h) Hammer On  (p) Pull Off  (b) Bend (r) Release (v) Vibrato

Stave 1:

E|--------------7------------------------------------------
B|-----------8--------------8-----------7--8--7h8p7--------
G|--------9--------------9-----------9---------------9--7--
D|-----7--------------7-----------7------------------------
A|--0--------------0-----------0---------------------------
E|---------------------------------------------------------

Stave 2:

E|--------------5------------------------------------------
B|-----------7--------------7-----------5--8--7h8p7--------
G|--------7--------------7-----------7---------------9--7--
D|-----5--------------5-----------5------------------------
A|--0--------------0-----------0---------------------------
E|---------------------------------------------------------

Stave 3:

E|--14----------14----------15--14h15r14-----------------15----------14--14b15--14--
B|------12--15------12--15----------------15b17------13----------12-----------------
G|-----------------------------------------------12----------11---------------------
D|----------------------------------------------------------------------------------
A|----------------------------------------------------------------------------------
E|----------------------------------------------------------------------------------

Stave 4:

E|----------------------------------------
B|--------3/5-----------------------------
G|-----2-------2/4--5--4h5p4----------4v--
D|--0-------------------------5--5/7------
A|----------------------------------------
E|----------------------------------------

Stave 5:

E|----------------------------------------0-----------------
B|--------3/5--------------------------------0--------------
G|-----2-------2/4--5--4h5p4----------4v--------4-----------
D|--0-------------------------5--5/7---------------4--------
A|----------------------------------------------------2-----
E|-------------------------------------------------------0--

Stave 6:

E|------------------------------------------------------------
B|-------------------------------------------------10--9------
G|-------11\9--------------9-----------11\9---------------11--
D|-------------9/11--9h11-----11-------------9/11-------------
A|--7/9---------------------------7/9-------------------------
E|------------------------------------------------------------

Stave 7:

E|--------------------------------------------
B|--------------------------------------------
G|-------11\9--------18/20\18p11--------------
D|-------------9/11---------------18/20\18p9--
A|--7/9---------------------------------------
E|--------------------------------------------

http://www.guitartabcreator.com
Guitar Tab Creator is intended to store guitar tab created through the tool. It currently does not support in-line text editing. Any text you place in here will be lost. If you need to comment on your tab, please use the "Tab Notes" section located below.