Sound will begin in 5 seconds

Warm Up Exercise

01234567891011121314151617181920212223
E
B
G
D
A
E
B
0 1 2 3 4 5 6 7 8 9 10 11 12 13 14 15 16 17 18 19 20 21 22 23
Song Science #1: How Pros Use 6 Chords to Write Hit Songs
(/) Slide Up  (\) Slide Down  (h) Hammer On  (p) Pull Off  (b) Bend (r) Release (v) Vibrato

Stave 1:

E|--------------------------|--------------------------|--------------------------|--------------------------|--------------------------|--5--5--6--6--7--7--
B|--------------------------|--------------------------|--------------------------|--------------------------|--5--5--6--6--7--7--8--8--|--------------------
G|--------------------------|--------------------------|--------------------------|--5--5--6--6--7--7--8--8--|--------------------------|--------------------
D|--------------------------|--------------------------|--5--5--6--6--7--7--8--8--|--------------------------|--------------------------|--------------------
A|--------------------------|--5--5--6--6--7--7--8--8--|--------------------------|--------------------------|--------------------------|--------------------
E|--5--5--6--6--7--7--8--8--|--------------------------|--------------------------|--------------------------|--------------------------|--------------------

Stave 2:

E|--9--9--8--8--7--7--6--6--|--------------------------|--------------------------|--------------------------|--------------------------|--------------------
B|--------------------------|--9--9--8--8--7--7--6--6--|--------------------------|--------------------------|--------------------------|--------------------
G|--------------------------|--------------------------|--9--9--8--8--7--7--6--6--|--------------------------|--------------------------|--------------------
D|--------------------------|--------------------------|--------------------------|--9--9--8--8--7--7--6--6--|--------------------------|--------------------
A|--------------------------|--------------------------|--------------------------|--------------------------|--9--9--8--8--7--7--6--6--|--------------------
E|--------------------------|--------------------------|--------------------------|--------------------------|--------------------------|--9--9--8--8--7--7--

Stave 3:

E|----------------------------|-------------------------|----------------------------|----------------------------|----------------------------|--7--8--9--10--7--8--9--|--
B|----------------------------|-------------------------|----------------------------|----------------------------|--7--8--9--10--7--8--9--10--|------------------------|--
G|----------------------------|-------------------------|----------------------------|--7--8--9--10--7--8--9--10--|----------------------------|------------------------|--
D|----------------------------|-------------------------|--7--8--9--10--7--8--9--10--|----------------------------|----------------------------|------------------------|--
A|----------------------------|--7--8--9--10--8--9--10--|----------------------------|----------------------------|----------------------------|------------------------|--
E|--7--8--9--10--7--8--9--10--|-------------------------|----------------------------|----------------------------|----------------------------|------------------------|--

Stave 4:

E|--11--10--9--8--11--10--9--8--|------------------------------|------------------------------|------------------------------|------------------------------|------------------------
B|------------------------------|--11--10--9--8--11--10--9--8--|------------------------------|------------------------------|------------------------------|------------------------
G|------------------------------|------------------------------|--11--10--9--8--11--10--9--8--|------------------------------|------------------------------|------------------------
D|------------------------------|------------------------------|------------------------------|--11--10--9--8--11--10--9--8--|------------------------------|------------------------
A|------------------------------|------------------------------|------------------------------|------------------------------|--11--10--9--8--11--10--9--8--|------------------------
E|------------------------------|------------------------------|------------------------------|------------------------------|------------------------------|--11--10--9--8--11--10--

Stave 5:

E|--------------------------|--------------------------|--------------5--6--7--8--|--9--8--7--6--------------|--------------------------|--------------------
B|--------------------------|--------------------------|--5--6--7--8--------------|--------------9--8--7--6--|--------------------------|--------------------
G|--------------------------|--------------5--6--7--8--|--------------------------|--------------------------|--9--8--7--6--------------|--------------------
D|--------------------------|--5--6--7--8--------------|--------------------------|--------------------------|--------------9--8--7--6--|--------------------
A|--------------5--6--7--8--|--------------------------|--------------------------|--------------------------|--------------------------|--9--8--7--6--------
E|--5--6--7--8--------------|--------------------------|--------------------------|--------------------------|--------------------------|--------------9--8--

http://www.guitartabcreator.com
Guitar Tab Creator is intended to store guitar tab created through the tool. It currently does not support in-line text editing. Any text you place in here will be lost. If you need to comment on your tab, please use the "Tab Notes" section located below.