Sound will begin in 5 seconds

Queeny - Ash

01234567891011121314151617181920212223
E
B
G
D
A
E
B
0 1 2 3 4 5 6 7 8 9 10 11 12 13 14 15 16 17 18 19 20 21 22 23
Song Science #1: How Pros Use 6 Chords to Write Hit Songs
(/) Slide Up  (\) Slide Down  (h) Hammer On  (p) Pull Off  (b) Bend (r) Release (v) Vibrato

Stave 1:

E|-------------------------------------------------
B|-------------------------------------------------
G|-------------------------------------------------
D|-------------4/6-4-2-4-2-------------4/6-4-2-4-2-
A|-----4-4-4-2-------------4-4/6-6-6-4-------------
E|-0-0---------------------------------------------

Stave 2:

E|-----------------------------------------------------------------
B|---------------------------5-------------------------------------
G|---------------------6---6---6---6-----------------------4-------
D|-1-1-1-1/6-6-6-6-6-6---6-------6-------------------6---6---6---6-
A|-----------------------------------6-6-6-4-4-4-4-4---4-------4---
E|-----------------------------------------------------------------

Stave 3:

E|---------------------------------------------------------
B|---------------------------------------------------------
G|---4---4---4---4---4---4---4---4---4---4---4---4-4-4-4-4-
D|-6---6---6---6---4---4---4---4---6---6---6---6---4-4-4-4-
A|---------------------------------------------------------
E|---------------------------------------------------------

Stave 4:

E|-9-7-------7---7-9-9-9/11-11-11-11---12-11-9-7-9-7-------
B|-----9-7-9---9-------------------------------------9-7-7-
G|---------------------------------------------------------
D|---------------------------------------------------------
A|---------------------------------------------------------
E|---------------------------------------------------------

http://www.guitartabcreator.com
Guitar Tab Creator is intended to store guitar tab created through the tool. It currently does not support in-line text editing. Any text you place in here will be lost. If you need to comment on your tab, please use the "Tab Notes" section located below.