Sound will begin in 5 seconds

Guitar 1

01234567891011121314151617181920212223
E
B
G
D
A
E
B
0 1 2 3 4 5 6 7 8 9 10 11 12 13 14 15 16 17 18 19 20 21 22 23
Song Science #1: How Pros Use 6 Chords to Write Hit Songs
(/) Slide Up  (\) Slide Down  (h) Hammer On  (p) Pull Off  (b) Bend (r) Release (v) Vibrato

Stave 1:

E|-----------------------------------------------------------------------------
B|-----------------------------------------------------------------------------
G|----------9------9---------------9-----------------9-----9----------7--------
D|------10-----10-----10--------9-----9-----------7-----7----------5-----5-----
A|--12----------------------10-----------10----9----------------7-----------7--
E|-----------------------------------------------------------------------------

Stave 2:

E|---------------------------------------------
B|--6----3-------------------------------------
G|--5----3-------------------------------------
D|--7----3------5----5------4----5--5--10--12--
A|--5----5------6----7------4----6--5--7---9---
E|--------------8----6------6----8--7--7---9---

Stave 3:

E|-----------------------------------------------------------------
B|-------3----------------------------------5--8--6----------------
G|--7----5---------4--5--7--5--4-------5h7-----------9--7--5-------
D|--7----5----4/5-----------------5/7-------------------------7/9--
A|--5--------------------------------------------------------------
E|-----------------------------------------------------------------

Stave 4:

E|------------------------------------
B|------------------------------------
G|------------------------------------
D|----------12h5h8--12h5h10h5h9h5-----
A|--12h5h8----------------------------
E|------------------------------------

http://www.guitartabcreator.com
Guitar Tab Creator is intended to store guitar tab created through the tool. It currently does not support in-line text editing. Any text you place in here will be lost. If you need to comment on your tab, please use the "Tab Notes" section located below.