Sound will begin in 5 seconds

Taking Care Of Business

01234567891011121314151617181920212223
E
B
G
D
A
E
B
0 1 2 3 4 5 6 7 8 9 10 11 12 13 14 15 16 17 18 19 20 21 22 23
Song Science #1: How Pros Use 6 Chords to Write Hit Songs
(/) Slide Up  (\) Slide Down  (h) Hammer On  (p) Pull Off  (b) Bend (r) Release (v) Vibrato

Stave 1:

E|--_------------------------------------
B|--_------------------------------------
G|--_------------------------------------
D|--_--------------------10--12----------
A|--10--12--10--8--10--8--8---8---10--12--
E|--8---8---8---6--6---6----------8---8---

Stave 2:

E|--12--------------------5---------------------
B|--11--------------------4---------------------
G|--12--8--6b7------------5--9--7b8-------------
D|--_----------8--6--8v-------------10--8--10--
A|--_------------------------------------------
E|--_------------------------------------------

Stave 3:

E|--_------------
B|--_------------
G|--9---10--8--7--
D|--10--10--8--8--
A|--10--8---6--8--
E|--8----------6--

http://www.guitartabcreator.com
Guitar Tab Creator is intended to store guitar tab created through the tool. It currently does not support in-line text editing. Any text you place in here will be lost. If you need to comment on your tab, please use the "Tab Notes" section located below.