Sound will begin in 5 seconds

Riff #1

01234567891011121314151617181920212223
E
B
G
D
A
E
B
0 1 2 3 4 5 6 7 8 9 10 11 12 13 14 15 16 17 18 19 20 21 22 23
Song Science #1: How Pros Use 6 Chords to Write Hit Songs
(/) Slide Up  (\) Slide Down  (h) Hammer On  (p) Pull Off  (b) Bend (r) Release (v) Vibrato

Stave 1:

E|--------------------------------------------
B|--6--6/8--8---------------------------7--5--
G|--7-------9--7--5--6-----5v-----------7--5--
D|----------------------7------7--5--7--------
A|--------------------------------------------
E|--------------------------------------------

Stave 2:

E|------------------------------------------------------------------------
B|-------5--5-------5--5-------5--5---------------------------------------
G|--7b9--------7b9--------7b9--------9r7--5--7b9--5v-----------5--5v--/0--
D|----------------------------------------------------7--5--7-------------
A|------------------------------------------------------------------------
E|------------------------------------------------------------------------

Stave 3:

E|--12---------12--12---------------------------
B|--12--12b14--12--12--14r12--10------10--10v--\
G|--------------------------------11------------
D|----------------------------------------------
A|----------------------------------------------
E|----------------------------------------------

Stave 4:

E|-----------------------------5--5v--7b9--
B|------------------------5h7--------------
G|-------------------5h6-------------------
D|--------------5h7------------------------
A|-------3h5/7-----------------------------
E|--3h5------------------------------------

Stave 5:

E|--------------------------------------
B|--------------------------------------
G|--------------------------------------
D|--------7--------7--------7-----------
A|----/7-----7--6-----6--5-----3/4------
E|----------------------------------5v--

Stave 6:

E|------------5--------------------------
B|---------5-----8p5---------------------
G|----7b9-------------7p5--7p5-----------
D|------------------------------7--5h7v--
A|---------------------------------------
E|---------------------------------------

Stave 7:

E|--------------------------------------------
B|--------------------------------------------
G|---------5h7--5-----5-----------------------
D|----5h7----------7-----7--5-----5--6--6/7v--
A|-----------------------------7--------------
E|--------------------------------------------

Stave 8:

E|------------------------15----------------------------------------
B|---------13--15--15b17------15b17v--15p13--15p13------13--13--15--
G|----/14-------------------------------------------14--------------
D|------------------------------------------------------------------
A|------------------------------------------------------------------
E|------------------------------------------------------------------

Stave 9:

E|----------------------------------
B|----------------------------------
G|--0h2v--2p0--2p0---------------2--
D|------------------2p0----------2--
A|-----------------------2b4--0--0--
E|----------------------------------

http://www.guitartabcreator.com
Guitar Tab Creator is intended to store guitar tab created through the tool. It currently does not support in-line text editing. Any text you place in here will be lost. If you need to comment on your tab, please use the "Tab Notes" section located below.