Sound will begin in 5 seconds

Layla Eric Clapton

01234567891011121314151617181920212223
E
B
G
D
A
E
B
0 1 2 3 4 5 6 7 8 9 10 11 12 13 14 15 16 17 18 19 20 21 22 23
Song Science #1: How Pros Use 6 Chords to Write Hit Songs
(/) Slide Up  (\) Slide Down  (h) Hammer On  (p) Pull Off  (b) Bend (r) Release (v) Vibrato

Stave 1:

E|-----------------------------------------------
B|-----------------------------------------------
G|--------------------7--5--3--------5--------7--
D|-------0h3p0-----0--7--5--3--------5--------7--
A|--0h3---------3-----5--3--1--1-----3--0-----5--
E|--------------------------------3--------3-----

Stave 2:

E|---------10h13p10------10v--13b15--13v--12-------------
B|--10h13------------13-----------------------13--13b15--
G|-------------------------------------------------------
D|-------------------------------------------------------
A|-------------------------------------------------------
E|-------------------------------------------------------

Stave 3:

E|---------10h13p10------10v--15b17--15--12-------------
B|--10h13------------13----------------------13--13b15--
G|------------------------------------------------------
D|------------------------------------------------------
A|------------------------------------------------------
E|------------------------------------------------------

http://www.guitartabcreator.com
Guitar Tab Creator is intended to store guitar tab created through the tool. It currently does not support in-line text editing. Any text you place in here will be lost. If you need to comment on your tab, please use the "Tab Notes" section located below.