Sound will begin in 5 seconds

Knocking On Heaven' Door - Slash Solo (G&R)

01234567891011121314151617181920212223
E
B
G
D
A
E
B
0 1 2 3 4 5 6 7 8 9 10 11 12 13 14 15 16 17 18 19 20 21 22 23
Song Science #1: How Pros Use 6 Chords to Write Hit Songs
(/) Slide Up  (\) Slide Down  (h) Hammer On  (p) Pull Off  (b) Bend (r) Release (v) Vibrato

Stave 1:

E|---------------------------------------------------------------------------------------------
B|-------------------------14-----------------------------14b16--14v--12p11--11--12b14--12p11--
G|--11--13b15r13--11--13v------13b15r13--11--11v------11---------------------------------------
D|------------------------------------------------13-------------------------------------------
A|---------------------------------------------------------------------------------------------
E|---------------------------------------------------------------------------------------------

Stave 2:

E|----------------------14-----------------14--16b18--16v--16b18--16b18r16--14v--20/21--20--19--20--19--
B|--12v--11------11h12------12p11v--14/16---------------------------------------------------------------
G|------------------------------------------------------------------------------------------------------
D|-----------13-----------------------------------------------------------------------------------------
A|------------------------------------------------------------------------------------------------------
E|------------------------------------------------------------------------------------------------------

Stave 3:

E|----20b21--20--19--20--19-----------------------------------------------
B|---------------------------16v--14b16r14b16r14--------------------------
G|------------------------------------------------15b17r15b17r15--11--11--
D|------------------------------------------------------------------------
A|------------------------------------------------------------------------
E|------------------------------------------------------------------------

http://www.guitartabcreator.com
Guitar Tab Creator is intended to store guitar tab created through the tool. It currently does not support in-line text editing. Any text you place in here will be lost. If you need to comment on your tab, please use the "Tab Notes" section located below.