Sound will begin in 5 seconds

Jessica Allman Brothers

01234567891011121314151617181920212223
E
B
G
D
A
E
B
0 1 2 3 4 5 6 7 8 9 10 11 12 13 14 15 16 17 18 19 20 21 22 23
Song Science #1: How Pros Use 6 Chords to Write Hit Songs
(/) Slide Up  (\) Slide Down  (h) Hammer On  (p) Pull Off  (b) Bend (r) Release (v) Vibrato

Stave 1:

E|-------------------------------------------
B|--2--3--2--0-----------2--------2--3--3--2--
G|--2--2--2--0-----------2--------2--2--2--2--
D|--2--4--2--0-----------2--------2--4--4--2--
A|-------------------0-----------------------
E|-------------0--2--------2--0--------------

Stave 2:

E|------------9--10--10b12--12r10--9---------------------
B|--------10--------------------------10-----------------
G|----/9----------------------------------9--7--6--7--9--
D|-------------------------------------------------------
A|-------------------------------------------------------
E|-------------------------------------------------------

Stave 3:

E|---------9--10--9------------------------
B|-----10------------10--------------5-----
G|--9--------------------9--7--6--7--------
D|--------------------------------------7--
A|-----------------------------------------
E|-----------------------------------------

Stave 4:

E|--0--0----------------------------------0---------9--10--9h10p9h10------------------------
B|--0--0----------------------------------0--9--10--------------------10--------------5-----
G|--0--0--9--7--6--7--9--11--9h11p9h11p9--0-------------------------------9--7--6--7--------
D|--0--0----------------------------------0----------------------------------------------7--
A|--0--0----------------------------------0-------------------------------------------------
E|--0--0----------------------------------0-------------------------------------------------

http://www.guitartabcreator.com
Guitar Tab Creator is intended to store guitar tab created through the tool. It currently does not support in-line text editing. Any text you place in here will be lost. If you need to comment on your tab, please use the "Tab Notes" section located below.