Sound will begin in 5 seconds

The Boys are Back in Town

01234567891011121314151617181920212223
E
B
G
D
A
E
B
0 1 2 3 4 5 6 7 8 9 10 11 12 13 14 15 16 17 18 19 20 21 22 23
Song Science #1: How Pros Use 6 Chords to Write Hit Songs
(/) Slide Up  (\) Slide Down  (h) Hammer On  (p) Pull Off  (b) Bend (r) Release (v) Vibrato

Stave 1:

E|----------------------------------
B|-------3--------------------------
G|--2--4--2--------------------------
D|--2--4-----2--4--4--4--2-----2--2--
A|--0--2--------------------4--------
E|----------------------------------

Stave 2:

E|-----4-----------------2--
B|-----5--------5-----3--3--
G|--2--4--7-----4-----2--2--
D|--2--6--7--4--6--4--4-----
A|--0--4--5--4--4--4--2-----
E|-----------2-----2--------

Stave 3:

E|----------------------
B|----5-----6--5-----3--
G|--2--4--7--5--4-----2--
D|--2--6--7--7--6--4--4--
A|--0--4--5--5--4--4--2--
E|----------------2-----

Stave 4:

E|---------------------------------------------------------------------
B|---------------------------------------------------------------------
G|---------------------------------------------------------------------
D|----------7--7--------------7--7h9--------------7--9--9--9--9--7-----
A|--7--7--9--------0--7--7--9----------0--7--7--9--------------------9--
E|---------------------------------------------------------------------

Stave 5:

E|-----------------------------------------------------------------
B|-----------------------------------------------------------------
G|-----------6--6--------------9--------------6--7--7--7--7--6-----
D|--7--7--9--------7--7--7--9-----7--7--7--9--------------------7--
A|-----------------------------------------------------------------
E|-----------------------------------------------------------------

http://www.guitartabcreator.com
Guitar Tab Creator is intended to store guitar tab created through the tool. It currently does not support in-line text editing. Any text you place in here will be lost. If you need to comment on your tab, please use the "Tab Notes" section located below.