Sound will begin in 5 seconds

She's Automatic

01234567891011121314151617181920212223
E
B
G
D
A
E
B
0 1 2 3 4 5 6 7 8 9 10 11 12 13 14 15 16 17 18 19 20 21 22 23
Song Science #1: How Pros Use 6 Chords to Write Hit Songs
(/) Slide Up  (\) Slide Down  (h) Hammer On  (p) Pull Off  (b) Bend (r) Release (v) Vibrato

Stave 1:

E|----------------------------------------------------------------
B|-------------7--------------------------------------------------
G|-------------7--------------------------------------------------
D|-----9--7h9-----9--7h9-----9--9p7-----7--7-----7----------------
A|-----------------------------------9--------9-----9\7--5--------
E|--7---------------------7---------------------------------7--5--

Stave 2:

E|--5------5------5--5--
B|--5------5------5--5--
G|--6------6------6--6--
D|--7------7------7--7--
A|--7------7------7--7--
E|--5------5------5--5--

Stave 3:

E|-----------------------
B|-----------------------
G|--------------7--7-----
D|--------x--6--6--6-----
A|--------x--7-----7-----
E|--7--7--x-----------5--

Stave 4:

E|------------------
B|------------------
G|------------------
D|------------------
A|------------------
E|--7--7------7--7--

Stave 5:

E|----------------------------------------------------------------------------
B|----------------------------------------------------------------------------
G|--------------7--7---------------------7--x--x--9------------------7--7-----
D|--------x--6--6--6---------------x--6--6--x--x--8------------x--6--6--6-----
A|--------x--7-----7---------------x--7--7--x--x--9------------x--7-----7-----
E|--7--7--x-----------5------7--7--x---------------------7--7--x-----------5--

Stave 6:

E|------------------
B|------------------
G|------------------
D|------------------
A|------------------
E|--7--7------7--7--

Stave 7:

E|-----|--------|--------|--------|--------|--------|--------
B|-----|--------|--------|--------|--------|--------|-----1--
G|--9--|--9--4--|--4--9--|--9--4--|--4--9--|--9--4--|--4--1--
D|--9--|--9--4--|--4--9--|--9--4--|--4--9--|--9--4--|--4--1--
A|--7--|--7--2--|--2--7--|--7--2--|--2--7--|--7--2--|--2--0--
E|-----|--------|--------|--------|--------|--------|--------

http://www.guitartabcreator.com
Guitar Tab Creator is intended to store guitar tab created through the tool. It currently does not support in-line text editing. Any text you place in here will be lost. If you need to comment on your tab, please use the "Tab Notes" section located below.