Short Change Hero

Chords

01234567891011121314151617181920212223
E
B
G
D
A
E
B
0 1 2 3 4 5 6 7 8 9 10 11 12 13 14 15 16 17 18 19 20 21 22 23
(/) Slide Up  (\) Slide Down  (h) Hammer On  (p) Pull Off  (b) Bend (r) Release (v) Vibrato


e:--------|-------------|----------|------------|
B:--------|-------------|----------|------------|
G:--------|----------8--|-9-----13-|-11--8-9-11-|
D:----(8)-|-10----------|----------|------------|
A:--------|-------------|----------|------------|
E:--------|-------------|----------|------------|

e:--------|-------------|----------|------------|
B:--------|-------------|----------|------------|
G:--------|----------8--|-9-----13-|-11---------|
D:------9-|-10----------|----------|------------|
A:--------|-------------|----------|------------|
E:--------|-------------|----------|------------|

e:--------|-------------|----------|----------|-----|
B:--------|-------------|----------|-12-------|-----|
G:--------|----------8--|-9-----13-|-----11-9-|--8--|
D:------9-|-10----------|----------|----------|-----|
A:--------|-------------|----------|----------|-----|
E:--------|-------------|----------|----------|-----|

e:--------|-------------|----------|----------|
B:--------|-------------|----------|----------|
G:--------|-----------8-|-9-------8|----------|
D:------9-|---10--------|----------|--11------|
A:--------|-------------|----------|----------|
E:--------|-------------|----------|----------|
[[],[],[],[],[],[]]

Member for

8 years 8 months
Submitted by JesseVogel27 on Mon, 2011-10-24 08:43